Mancanegara Musik 80'an Dangdut Malaysia Reggae Lagu Religi Lagu Anak Radio Artikel

Chord gitar J Rocks - Selamat Tinggal Kekasihku [bass tab]

Advertisements

Chord gitar lagu / Kunci gitar lagu J Rocks - Selamat Tinggal Kekasihku [bass tab] - ( 5502 )
buat standard tuning 4 senar...


Intro
G|--------------------------|----------/7-----5-----4--|-----5--4-----------------|--------------------------|
D|--------------------------|--------------------------|-----------5-----3--------|----------/5-----3-----2--|
A|--------------------------|--5-----------------------|-----------------------5--|--3-----------------------|
E|--2-----/----------------|--------------------------|--------------------------|--------------------------|

G|--------------------------|----------/7-----5-----4--|-----5--4-----------------|--------------------------|
D|-----3--2--------2--------|--------------------------|-----------5-----3--------|-----------5-5-5-3--2-----|
A|-----------3--3--------3--|--5-----------------------|-----------------------5--|--3--------------------0--|
E|--------------------------|--------------------------|--------------------------|--------------------------|

G|--------------------------|----------/7-----5-----4--|-----5--4-----------------|--------------------------|
D|-----------2-----5-------|--------------------------|-----------5-----3--------|----------/5-----3-----2--|
A|--3--5-----------------3--|--5-----------------------|-----------------------5--|--3-----------------------|
E|--------------------------|--------------------------|--------------------------|--------------------------|

G|--------------------------|----------/7-----5-----4--|-----5--4-----------------|--------------------------|
D|--2-----/5----3--2--------|--------------------------|-----------5--------------|--------------------5-----|
A|-----3-----------------3--|--5-----------------------|--------------------5--5--|--3-----------------------|
E|--------------------------|--------------------------|--------------5--3--------|-----------3--3--3-----3--|

G|--------------------------|--------------------------|--------------------------|
D|--------------------5-----|--------------------5-----|----/5--5--3--2-----------|
A|--3-----------------------|--3-----------------------|--3--------------3--------|
E|-----------3--3--3-----3--|-----------3--3--3-----3--|--------------------5--0--|


Verse 1
G|--------------------------|--------------------------|--------------------------|--------------------------|
D|--------------------------|--------------------------|--------------------------|--------------------------|
A|--------------------------|--------------------------|--3-----------------------|--------------------------|
E|--1-----------------------|-----------------/--------|--------------------------|--------------------------|

G|--------------------------|--------------------------|--------------------------|--------------------------|
D|--------------------------|--------------------------|--------------------------|--------------5-----------|
A|--------------------------|--------------------------|--------------------------|-----2-----5-----5--------|
E|--1-----------------------|--------------------------|--5-----------------------|--3-----------------5--0--|

G|--------------------------|--------------------------|--------------------------|--------------------------|
D|--------------------------|--------------------------|--------------------------|--------------------------|
A|--------------------------|--------------------------|--3--------3--------------|-----------2-----4--------|
E|--1--------1--------------|-----------------/--------|--------------------------|--5--------------------5--|

G|--------------------------|--------------------------|--------------------------|--------------------------|
D|--------------------------|--------------------------|-----------------------3/-|--5-3-----2--3--2--------|
A|--5--------5--------------|--------------------------|--------------------------|--------------------3-----|
E|--------------------------|--------------------5----|--3--------3--------------|-----------------------0--|

G|--------------------------|--------------------------|--------------------------|--------------------------|
D|--------------------------|--------------------------|--------------------------|--------------------------|
A|--------------------------|--------------------------|--3--3--3--3--3--3--3--3--|--3--3--3--3--3--3--3--3--|
E|--1--1--1--1--1--1--1--1--|--1--1--1--1--1--1--1--1--|--------------------------|--------------------------|

G|--------------------------|--------------------------|--------------------------|--------------------------|
D|--------------------------|--------------------------|--------------------------|--------------------------|
A|--------------------------|--------------------------|--------------------------|--------2-----3--2--------|
E|--1--1--1--1--1--1--1--1--|--1--1--1--1--1--1--1--1--|--5--5--5--5--5--5--5--5--|--3--3-----3--------3--0--|

G|--------------------------|--------------------------|--------------------------|--------------------------|
D|--------------------------|--------------------------|--------------------------|--------------------------|
A|--------------------------|--------------------------|--3--3--3--3--3--3--3--3--|-----------2-----4-------|
E|--1--1--1--1--1--1--1--1--|--1--1--1--1--1--1--1--1--|--------------------------|--5--5--------------------|

G|--------------------------|--------------------------|--------------------------|-----------4-h5p4---4-----|
D|--------------------------|--------------------------|--------------------------|--------5---------5----5--|
A|--5--5--5--5--5--5-----5--|--------------------5-----|--3--3--3--3--3--3--3--3--|--3--3--------------------|
E|--------------------5-----|--3--3--3--3--3--3-----3--|--------------------------|--------------------------|

G|--------------------------|--------------------------|--------------------------|--------------------------|
D|--------------------3-----|--------------------------|--5-----------------------|--------------------------|
A|-----------3--------------|--------------------------|-----------5--------------|--------------------------|
E|--1-----------------------|--------------------------|--------------------3-----|--------------------------|

G|--------------------------|--------------------------|--------------------------|--------------------------|
D|--3-----------------------|--------------------------|--5-------5-------5-------|--------------------------|
A|-----------3--------------|--------------------------|--------------------------|--------------------------|
E|--------------------1-----|--------------------------|------3-------3-------3---|-------------------------|


Chorus 1
G|--------------------------|--------------------------|--------------------------|--------------------------|
D|--------------------------|----------/5--------------|--------------------------|----------/7-----5--3--2--|
A|--5-----3--5--5-----5-----|-----5-----------5-----5--|--3-----2--3--3-----3-----|-----7--------------------|
E|-----5-----------5-----5--|--3-----------------3-----|-----3-----------3-----3--|--5-----------------------|

G|--------------------------|--------------------------|--------------------------|--------------------------|
D|--------------------------|----------/5--------------|--------------------------|-----------2-----5-------|
A|--5-----3--5--5-----5-----|-----5-----------5-----5--|--3-----2--3--3-----3-----|--3--5--------------------|
E|-----5-----------5-----5--|--3-----------------3-----|-----3-----------3-----3--|--------------------------|

G|--------------------------|--------------------------|--------------------------|--------------------------|
D|--------------------------|----------/5--------------|--------------------------|----------/7-----5--3--2--|
A|--5-----3--5--5-----5-----|-----5-----------5-----5--|--3-----2--3--3-----3-----|-----7--------------------|
E|-----5-----------5-----5--|--3-----------------3-----|-----3-----------3-----3--|--5-----------------------|

G|--------------------------|--------------------------|--------------------------|--------------------------|
D|--------------------------|----------/5--------------|--------------------------|----/5-----3--3--2-----2--|
A|--5-----3--5--5-----5-----|-----5-----------5-----5--|-----------2--2--3--3-----|--------------------3-----|
E|-----5-----------5-----5--|--3-----------------3-----|--5--------------------3--|--------------------------|

G|----------------------/5--|-----5--5--4--4-----4-----|-----------4-----5--------|----/12---10-10-10p9---9--|
D|--3--------2-----3--------|-----------------5-----5--|-/7--------------------5--|--------------------10----|
A|--------------------------|--------------------------|--------------------------|--------------------------|
E|--------------------------|--------------------------|--------------------------|--------------------------|

G|-10----10--9----10----/17-|-17-17-17-16-16-----------|
D|--------------------------|----------------17-17-----|
A|--------------------------|--------------------------|
E|--------------------------|--------------------------|


Interlude
G|----------/7-----5-----4--|-----5--4-----------------|--------------------------|--------------------------|
D|--------------------------|-----------5-----3--------|-----------5-5-5-3-----2--|-----3--2--------2--------|
A|--5-----------------------|-----------------------5--|--3-----------------------|-----------3--3--------3--|
E|--------------------------|--------------------------|--------------------------|--------------------------|

G|----------/7-----5-----4--|-----5--4-----------------|--------------------------|--------------------------|
D|--------------------------|-----------5-----3--------|-----------5-5-5-3--2-----|-----------2-----5-------|
A|--5-----------------------|-----------------------5--|--3--------------------0--|--3--5-----------------3--|
E|--------------------------|--------------------------|--------------------------|--------------------------|

G|----------/7-----5-----4--|-----5--4-----------------|--------------------------|--------------------------|
D|--------------------------|-----------5--------------|-----------5-----3-----2--|-----3--2--------2--2-----|
A|--5-----------------------|-----------------------5--|--3-----------------------|-----------3--3--------3--|
E|--------------------------|-----------------5--3-----|--------------------------|--------------------------|

G|----------/7-----5-----4--|-----5--4-----------------|--------------------------|-----5--4--5--------------|
D|--------------------------|-----------5--------------|-----------2--1--2--5--4--|--5-----------5--4--5-----|
A|--5-----------------------|-----------------------5--|--3--2--3-----------------|--------------------------|
E|--------------------------|-----------------5--3-----|--------------------------|--------------------------|

G|--------------------------|
D|--------------------------|
A|--3-----------------------| rest 8 bar
E|--------------------------|


Chorus 2/Outro
G|--------------------------|--------------------------|--------------------------|--------------------------|
D|-----------2-----5-------|--------------------------|----------/5--------------|--------------------------|
A|--3--5--------------------|--5-----3--5--5-----5-----|-----5-----------5-----5--|--3-----2--3--3-----3-----|
E|--------------------------|-----5-----------5-----5--|--3-----------------3-----|-----3-----------3-----3--|

G|--------------------------|--------------------------|--------------------------|--------------------------|
D|----------/7-----5--3--2--|--------------------------|----------/5--------------|--------------------------|
A|-----7--------------------|--5-----3--5--5-----5-----|-----5-----------5-----5--|--3-----2--3--3-----3-----|
E|--5-----------------------|-----5-----------5-----5--|--3-----------------3-----|-----3-----------3-----3--|

G|--------------------------|--------------------------|--------------------------|--------------------------|
D|----------/7-----5--3--2--|--------------------------|----------/5--------------|--------------------------|
A|--------------------------|--5-----3--5--5-----5-----|-----5-----------5-----5--|--3-----2--3--3-----3-----|
E|--5--3--5-----------------|-----5-----------5-----5--|--3-----------------3-----|-----3-----------3-----3--|

G|--------------------------|--------------------------|--------------------------|--------------------------|
D|----------/7-----5--3--2--|--------------------------|----------/5--------------|--------------------------|
A|-----7--------------------|--5-----3--5--5-----5-----|-----5-----------5-----5--|--3-----2--3--3-----3-----|
E|--5-----------------------|-----5-----------5-----5--|--3-----------------3-----|-----3-----------3-----3--|

G|--------------------------|----------/7-----5-----4--|-----5--4-----------------|--------------------------|
D|-----------2-----5-------|--------------------------|-----------5-------------|----------/5-----3-----2--|
A|--3--5--------------------|--5-----------------------|-----------------------5--|--3-----------------------|
E|--------------------------|--------------------------|-----------------5--3-----|--------------------------|

G|--------------------------|----------/7-----5-----4--|-----5--4-----------------|--------------------------|
D|--2--3--2--------2--2-----|--------------------------|-----------5-------------|----------/5-----3--2-----|
A|-----------3--3--------3--|--5-----------------------|-----------------------5--|--3--------------------0--|
E|--------------------------|--------------------------|-----------------5--3-----|--------------------------|

G|--------------------------|----------/7-----5-----4--|-----5--4-----------------|--------------------------|
D|-----------2-----5-------|--------------------------|-----------5-------------|----------/5-----3-----2--|
A|--3--5--------------------|--5-----------------------|-----------------------5--|--3-----------------------|
E|--------------------------|--------------------------|-----------------5--3-----|--------------------------|

G|--------------------------|----------/7-----5-----4--|-----5--4-----------------|--------------------------|
D|--2--3--2--------2--2-----|--------------------------|-----------5-------------|----------/5-----3--2-----|
A|-----------3--3--------3--|--5-----------------------|-----------------------5--|--3--------------------0--|
E|--------------------------|--------------------------|-----------------5--3-----|--------------------------|

G|--------------------------|-----7-----7-----7-----7--|--------------------------|-----5-----5-----5-----5--|
D|-----------2-----5-------|--------------------------|-----5-----5-----5-----5--|--------------------------|
A|--3--5-----------------3--|--5-----5-----5-----5-----|--------------------------|--3-----3-----3-----3-----|
E|--------------------------|--------------------------|--3-----3-----3-----3-----|--------------------------|

G|--------------------------|-----7-----7-----7-----7--|--------------------------|--------------------------|
D|-----7-----7-----7-----7--|--------------------------|-----5-----5-----5-----5--|--------------------7--5--|
A|--------------------------|--5-----5-----5-----5-----|--------------------------|--3--2--3--7--5--7--------|
E|--5-----5-----5-----5-----|--------------------------|--3-----3-----3-----3-----|--------------------------|

Advertisements


Chord Lainnya
J Rocks - Berharap Kau Kembali
J Rocks - Cahaya
J Rocks - Ceria
J Rocks - Ceria [bass tab]
J Rocks - Ceria [Tab]
J Rocks - Cobalah Kau Mengerti
J Rocks - Cobalah Kau Mengerti (Guitar Tab)
Lihat kumpulan Chord gitar J Rocks Lengkap disini.

Sponsors:

Pencarian

Next Chord : J Rocks - Ceria [Tab]

Kata Kunci yang sering digunakan dalam pencarian chord gitar: