Mancanegara Musik 80'an Dangdut Malaysia Reggae Lagu Religi Lagu Anak Radio Artikel

Chord gitar The chainsmokers - Closer - version 2

Advertisements

Chord gitar lagu / Kunci gitar lagu The chainsmokers - Closer - version 2 - ( 29 )
CAPO on 1st FRET

[Intro]

C D Em D C D Em D
[Verse 1: Andrew Taggart]

C D Em
Hey, I was doing just fine just before I met you
D C D Em D
I drank too much and that's an issue but I'm okay
C D Em
Hey, you tell your friends it was nice to meet them
D C D Em D
But I hope I never see them again

[MELODY]

e|--------------------------------------------------------------------|
B|--3------3-3---3-0-0-----------3-3-----3-0-5------------------------|
G|---------------------2-2-0--------------------2-2-0-------4-2-------|
D|-----------------------------------------------------0-2------------|
A|--------------------------------------------------------------------|
E|--------------------------------------------------------------------|
[Pre-Chorus: Andrew Taggart]

C D
I know it breaks your heart
Em D C
Moved to the city in a broke down car and
D
Four years, no calls
Em D
Now you're looking pretty in a hotel bar and
C D Em D
I can't stop
C D Em D
No, I can't stop

[MELODY]

e|--3--3--3-5-5---3-3-3-3-3-3-5-5-3------10-7-----------------7-------|
B|---------------------------------------------10-8--------------10---|
G|---------------------------------------------------7---7-9----------|
D|--------------------------------------------------------------------|
A|--------------------------------------------------------------------|
E|--------------------------------------------------------------------|
[Chorus: Andrew Taggart]

C D Em D
So baby pull me closer in the backseat of your Rover
C D
That I know you can't afford
Em D
Bite that tattoo on your shoulder
C D
Pull the sheets right off the corner
Em D
Of the mattress that you stole
C D
From your roommate back in Boulder
Em D
We ain't ever getting older

[MELODY]

e|-9-11-11-9-9-11-11-9-9-13-13-9-9-11-11-9-9-11-------------------|
B|----------------------------------------------------------------|
G|----------------------------------------------------------------|
D|----------------------------------------------------------------|
A|----------------------------------------------------------------|
E|----------------------------------------------------------------|

e|---11-9-9-11-11-9-9-13-13-9-9-11-11-13-9-11---------------------|
B|----------------------------------------------------------------|
G|----------------------------------------------------------------|
D|----------------------------------------------------------------|
A|----------------------------------------------------------------|
E|----------------------------------------------------------------|

e|---11-13-9-11-11-9-9-13-13-9-9-11-11-9-9-11---------------------|
B|----------------------------------------------------------------|
G|----------------------------------------------------------------|
D|----------------------------------------------------------------|
A|----------------------------------------------------------------|
E|----------------------------------------------------------------|

e|---11-9-9-11-11-9-9-13-13-9-9-11-11-9-9-11----------------------|
B|----------------------------------------------------------------|
G|----------------------------------------------------------------|
D|----------------------------------------------------------------|
A|----------------------------------------------------------------|
E|----------------------------------------------------------------|

C D Em D C D Em D
We ain't ever getting older
C D Em D C D Em D
We ain't ever getting older
[Verse 2: Halsey]

C D Em
You, look as good as the day I met you
D C D Em D
I forget just why I left you, I was insane
C D Em
Stay, and play that Blink-182 song
D C D Em D
That we beat to death in Tuscon, okay

[MELODY]

e|--------------------------------------------------------------------|
B|--3------3-3---3-0-0-----------3-3-----3-0-5------------------------|
G|---------------------2-2-0--------------------2-2-0-------4-2-------|
D|-----------------------------------------------------0-2------------|
A|--------------------------------------------------------------------|
E|--------------------------------------------------------------------|
[Pre-Chorus: Halsey]

C D
I know it breaks your heart
Em D C
Moved to the city in a broke down car and
D
Four years, no calls
Em D
Now you're looking pretty in a hotel bar and
C D Em D
I can't stop
C D Em D
No, I can't stop

[MELODY]
e|--3--3--3-5-5---3-3-3-3-3-3-5-5-3------10-7-----------------7-------|
B|---------------------------------------------10-8--------------10---|
G|---------------------------------------------------7---7-9----------|
D|--------------------------------------------------------------------|
A|--------------------------------------------------------------------|
E|--------------------------------------------------------------------|
[Chorus: Andrew Taggart & Halsey]

C D Em D
So baby pull me closer in the backseat of your Rover
C D
That I know you can't afford
Em D
Bite that tattoo on your shoulder
C D
Pull the sheets right off the corner
Em D
Of the mattress that you stole
C D
From your roommate back in Boulder
Em D
We ain't ever getting older

[MELODY]

e|-9-11-11-9-9-11-11-9-9-13-13-9-9-11-11-9-9-11-------------------|
B|----------------------------------------------------------------|
G|----------------------------------------------------------------|
D|----------------------------------------------------------------|
A|----------------------------------------------------------------|
E|----------------------------------------------------------------|

e|---11-9-9-11-11-9-9-13-13-9-9-11-11-13-9-11---------------------|
B|----------------------------------------------------------------|
G|----------------------------------------------------------------|
D|----------------------------------------------------------------|
A|----------------------------------------------------------------|
E|----------------------------------------------------------------|

e|---11-13-9-11-11-9-9-13-13-9-9-11-11-9-9-11---------------------|
B|----------------------------------------------------------------|
G|----------------------------------------------------------------|
D|----------------------------------------------------------------|
A|----------------------------------------------------------------|
E|----------------------------------------------------------------|

e|---11-9-9-11-11-9-9-13-13-9-9-11-11-9-9-11----------------------|
B|----------------------------------------------------------------|
G|----------------------------------------------------------------|
D|----------------------------------------------------------------|
A|----------------------------------------------------------------|
E|----------------------------------------------------------------|

C D Em D C D Em D
We ain't ever getting older
C D Em D C D Em D
We ain't ever getting older
[Chorus: Andrew Taggart & Halsey]

C D Em D
So baby pull me closer in the backseat of your Rover
C D
That I know you can't afford
Em D
Bite that tattoo on your shoulder
C D
Pull the sheets right off the corner
Em D
Of the mattress that you stole
C D
From your roommate back in Boulder
Em D
We ain't ever getting older
Em D
No we ain't ever getting older
[Outro]

C D Em D C D Em D

I saw this on the internet but i really love using this app. So here you go.
-Boybits



kordindonesia.com

Advertisements


Chord Lainnya
The chainsmokers - All we know
The chainsmokers - All we know
The chainsmokers - All we know - version 1
The chainsmokers - All we know / closers
The chainsmokers - All we know / closers
The chainsmokers - Break up every night
The chainsmokers - Break up every night
Lihat kumpulan Chord gitar The chainsmokers Lengkap disini.

Sponsors:

Pencarian

Klik di sini untuk rekomendasikan chord kepada teman

Kata Kunci yang sering digunakan dalam pencarian chord gitar: