Mancanegara Musik 80'an Dangdut Malaysia Lagu Religi Lagu Anak Acara TV Radio Artikel

Chord gitar Coldplay - Oceans - version 1

Chord gitar lagu / Kunci gitar lagu Coldplay - Oceans - version 1 - ( 32 )
Oceans - Colplay

Did my best with a few live performances, please do feel free to comment with suggestions or what not.

I'm pretty sure this is CLOSE to how Chris plays it; please rate and enjoy!
Capo 4 - Tuning DGDDAD
Please do correct my chord name notation, obviously not very good with these types of chord names I

just know the correct forms.

Gsus2 D/F# F6 F6* C5* Bm7 A#maj7 C#sus2 C5 C5*

D|----0-----0-----0-----0-----0-------0-----0------0--------0-----0-----|

A|----0-----0-----0-----0-----0-------0-----0------0--------0-----0-----|

D|----0-----0-----0-----0-----0-------0-----0------0--------0-----0-----|

D|----7-----7-----7-----5-----5-------5-----5------4--------5-----5-----|

G|----7-----7-----7-----7-----5-------4-----3------2--------5-----5-----|

D|----5-----4-----3-----3-----2-------0-----0------0--------3-----2-----|

Verse Chorus Outro
****Throughout the song, where an F6* applies it happens on the 3rd beat of the measure (4/4 time) during

the intro but comes in on the either the 3rd or 4th beat during verses; sharing a measure with the F6
Intro: Gsus2 D/F# F6 F6* C5* x2
Gsus2 D/F#

Wait for your call, love

F6 F6* C5*

The call never came

Gsus2 D/F#

Ready to fall up

F6 F6* C5*

Ready to claim
Gsus2 D/F#

I'm ready for it all, love

F6 F6* C5*

I'm ready for the pain

Gsus2 D/F#

Meet under sun

F6 F6* C5*

Meet me again
Bm7 A#maj7

In the rain

C#sus2 Bm7

In the rain

Bm7

In the rain

C#sus2 Gsus2 D/F# F6 C5*

The rain
Gsus2 D/F#

Behind the walls, love

F6 C5*

I'm trying to change

Gsus2 D/F#

And I'm ready for it all, love

F6 C5*

I'm ready for the change

Gsus2 D/F#

Meet me in blue sky

F6 C5*

Meet me again
Bm7

In the rain

A#maj7 C#sus2 Bm7

The rain, the rain

Bm7

In the rain

A#maj7 C5 C5*

The rain
C5 C5*
C5 C5*

You've got to find yourself alone in this world

C5 C5*

You've got to find yourself alone...
Bm7 A#maj7 C#sus2 Bm7

...oooooooooooooooooooone...

Bm7 A#maj7 C#sus2

alooooooooooone
In the second chorus you might hear a short walk down, it goes like this:

During the Bm7 you can play with you index finger:

D|-------------------------------|

A|-------------------------------|

D|-----2-2-2-3--2--0-------------|

D|-------------------------------|

G|-------------------------------|

D|-------------------------------------|

Sponsors:

Chord Lainnya
Coldplay - 42
Coldplay - A message
Coldplay - A message - version 1
Coldplay - A message - version 2
Coldplay - A message - version 3
Coldplay - A message - version 4
Coldplay - A rush of blood to the head
Lihat kumpulan Chord gitar Coldplay Lengkap disini.

Kata Kunci yang sering digunakan dalam pencarian chord gitar: