Mancanegara Musik 80'an Dangdut Malaysia Lagu Religi Lagu Anak Acara TV Radio Artikel

Chord gitar Coldplay - Ufo - version 1

Chord gitar lagu / Kunci gitar lagu Coldplay - Ufo - version 1 - ( 50 )
U.F.O.

COLDPLAY
Album: MYLO XYLOTO
No Capo - Tuning CGDGBD (from low to high)
The other versions are in standard tuning. This is the song in its actual tuning.
Fingerpick the chords throughout the whole song.
Listen to it to get the hang of the picking pattern.
Intro:
Em7 Dadd11/C G5 G5

D|--0------|--0-----|--0-----|--0-----|


B|--12-----|--7-----|--3-----|--3-----|


G|--0------|--0-----|--0-----|--0-----|


D|--12-----|--7-----|--0-----|--0-----|


G|--9------|--5-----|--0-----|--0-----|


C|---------|--------|--------|--------|

Lord I
VERSE 1:
G Csus4 Gii D/G

D|--12------------|--0-----|--0-----|--0-----|


B|--12------------|--10----|--0-----|--7-----|


G|--0-------------|--0-----|--0-----|--0-----|


D|--12------------|--10----|--0-----|--7-----|


G|--0-------------|--------|--0-----|--0-----|


C|----------------|--0-----|--------|--------|

don't know which way I am go ing
G/C Csus4 Gii D/G

D|--0-------------|--0--------|--0-----|--0-----|


B|--12------------|--10-------|--0-----|--7-----|


G|--0-------------|--0--------|--0-----|--0-----|


D|--12------------|--10-------|--0-----|--7-----|


G|--12------------|-----------|--0-----|--0-----|


C|--0-------------|--0--------|--------|--------|

which way the river gonna flow It just
G Csus4 Gii Bm

D|--12----------|--0---------|--0-----|--4-----|


B|--12----------|--10--------|--0-----|--3-----|


G|--0-----------|--0---------|--0-----|--4-----|


D|--12----------|--10--------|--0-----|--0-----|


G|--0-----------|------------|--0-----|--4-----|


C|--------------|--0---------|--------|--------|

seems that up stream I keep ro wing
C D/G Gii

D|--0--------------|--0---------|--0-----|


B|--5--------------|--7---------|--0-----|


G|--0--------------|--0---------|--0-----|


D|--5--------------|--7---------|--0-----|


G|-----------------|--0---------|--0-----|


C|--0--------------|------------|--------|

Still got such a long way to go
Dadd1/C D/G Gii D/G

D|--0--------------|--0--------|--0-----|--0-----|


B|--5--------------|--7--------|--0-----|--7-----|


G|--0--------------|--0--------|--0-----|--0-----|


D|--7--------------|--7--------|--0-----|--7-----|


G|--5--------------|--0--------|--0-----|--0-----|


C|-----------------|-----------|--------|--------|

Still got such a long way to go Then that
VERSE 2:
G Cadd9

D|--12------------|--10----|


B|--12------------|--8-----|


G|--0-------------|--0-----|


D|--12------------|--10----|


G|--0-------------|--------|


C|----------------|--0-----|

light, it's your eye
Am F Cii

D|--0-----------------------------------|--0-----------------|--0-----|


B|--8-----------------------------------|--10----------------|--8-----|


G|--0-----------------------------------|--0-----------------|--0-----|


D|--7-----------------------------------|--10----------------|--10----|


G|--------------------------------------|--10----------------|--------|


C|--9-----------------------------------|--0-----------------|--0-----|

I know I swear we'll find somewhere the streets are paved with gold Bullets
G Cadd9

D|--12------------|--10----|


B|--12------------|--8-----|


G|--0-------------|--0-----|


D|--12------------|--10----|


G|--0-------------|--------|


C|----------------|--0-----|

fly, split the skies
Am F Cii

D|--0-------------------------------------|--0-----------------|--0-----|


B|--8-------------------------------------|--10----------------|--8-----|


G|--0-------------------------------------|--0-----------------|--0-----|


D|--7-------------------------------------|--10----------------|--10----|


G|----------------------------------------|--10----------------|--------|


C|--9-------------------------------------|--0-----------------|--0-----|

But that's alright, sometimes sunlight comes streaming through the holes.
OUTRO:
G Csus4 G Bm

D|--12-----|--0------|--0------|--4------|


B|--12-----|--10-----|--0------|--3------|


G|--0------|--0------|--0------|--4------|


D|--12-----|--10-----|--0------|--0------|


G|--0------|---------|--0------|--4------|


C|---------|--0------|---------|---------|

Cadd9 Dadd11/C G5 D/G

D|--10-----|--0------|--0------|--0------|


B|--8------|--7------|--3------|--7------|


G|--0------|--0------|--0------|--0------|


D|--10-----|--7------|--0------|--7------|


G|---------|--5------|--0------|--0------|


C|--0------|---------|---------|---------|

G Csus4 G Bm

D|--12-----|--0------|--0------|--4------|


B|--12-----|--10-----|--0------|--3------|


G|--0------|--0------|--0------|--4------|


D|--12-----|--10-----|--0------|--0------|


G|--0------|---------|--0------|--4------|


C|---------|--0------|---------|---------|

Cadd9 Dadd11/C G5

D|--10-----|--0------|--0------|


B|--8------|--7------|--3------|


G|--0------|--0------|--0------|


D|--10-----|--7------|--0------|


G|---------|--5------|--0------|


C|--0------|---------|---------|

P.S.(My theory knowledge is a bit shit so most chord names are probably wrong).

Sponsors:

Chord Lainnya
Coldplay - 42
Coldplay - A message
Coldplay - A message - version 1
Coldplay - A message - version 2
Coldplay - A message - version 3
Coldplay - A message - version 4
Coldplay - A rush of blood to the head
Lihat kumpulan Chord gitar Coldplay Lengkap disini.

Kata Kunci yang sering digunakan dalam pencarian chord gitar: