Mancanegara Musik 80'an Dangdut Malaysia Reggae Lagu Religi Lagu Anak Radio Artikel

Chord gitar Coldplay - What if - version 3

Chord gitar lagu / Kunci gitar lagu Coldplay - What if - version 3 - ( 35 )
----------------------------------------------------------------------------

What If - Coldplay

----------------------------------------------------------------------------


Tabbed by: Craig Dobson

Email:[email protected]
Tuning:EADGBe

Chords are:

F#m A Bm7add4 E7 D Bm7 F#m7 Esus4 E G

e|---2------0--------x-------0----2------2------2-----0-----0----3--|


B|---2------2--------3-------3----3------3------2-----0-----0----0--|


G|---2------2--------2-------1----2------2------2-----2-----1----0--|


D|---4------2--------2-------2----0------4------2-----2-----2----0--|


A|---4------0--------2-------2----x------2------4-----2-----2----3--|


E|---2------x--------x-------0----x------x------2-----0-----0----2--|


F#m A Bm7add4 E7

What if there was no light

D

Nothing wrong, nothing right

F#m A Bm7add4

What if there was no time

E7 D

And no reason or rhyme

Bm7 E7

What if you should decide'

F#m D E7

That you don't want be there by your side

F#m D E7

That you don't want me there in your life
F#m A Bm7add4 E7

What if I got it wrong'

D

And no poem or song

F#m A Bm7add4 E7

Could put right what I got wrong

D

Or make you feel I belong'

Bm7 E7

And what if you should decide

F#m D E7

That you don't want me there by your side

F#m D E7

That you don't want me there in your life
D Bm7

Ooh, that's right

F#m7 Esus4 E

Lets take a breath jump over the side

D Bm7

Ooh, that's right

F#m7 Esus4 E

How can you know it if you don't even try'

D Bm7

Ooh, that's right
F#m A Bm7add4 E7

Every step that you take

D

Could be your biggest mistake

F#m A Bm7add4 E7

It could bend or it could break

D

That's the risk that you take

Bm7 E7

And what if you should decide

F#m D E7

That you don't want me there in your life

F#m D E7

That you don't want me there by your side

D Bm7

Ooh, that's right

F#m7 Esus4 E

Lets take a breath jump over the side

D Bm7

Ooh, that's right

F#m7 Esus4 E

How can you know it when you don't even try

D Bm7

Ooh, that's right
Oooooooooooooo

D Bm7

Ooh, that's right

F#m7 Esus4 E

Lets take a breath jump over the side

D Bm7

Ooh, that's right

F#m7 Esus4 E

You know that darkness has turned into light

D Bm7

Ooh that's right
Enjoy people!

Sponsors:

Chord Lainnya
Coldplay - 42
Coldplay - A message
Coldplay - A message - version 1
Coldplay - A message - version 2
Coldplay - A message - version 3
Coldplay - A message - version 4
Coldplay - A rush of blood to the head
Lihat kumpulan Chord gitar Coldplay Lengkap disini.

Kata Kunci yang sering digunakan dalam pencarian chord gitar: