Mancanegara Musik 80'an Dangdut Malaysia Lagu Religi Lagu Anak Acara TV Radio Artikel

Chord gitar Green Day - Dookie

Chord gitar lagu / Kunci gitar lagu Green Day - Dookie - ( 37 )
Artist : Green Day

Album : Dookie

Tabbed By : Ketan ([email protected])
TUNING FOR FULL ALBUM : HALF-STEP DOWN

---------------------------------------

All the tracks in the album are to be

played after tuning your guitar

half-step down.

---------------------------------------

------------------------------------------------------------

Track 1: Burnout

------------------------------------------------------------

CHORDS USED

G5 C5 F5 D5

e|---------------------------------------------------------------------------|

B|---------------------------------------------------------------------------|

G|-----------5---------------7-----------------------------------------------|

D|---5-------5-------3-------7-----------------------------------------------|

A|---5-------3-------3-------5-----------------------------------------------|

E|---3---------------1-------------------------------------------------------|

[VERSE]

G5 C5

I declare I don't care no more

G5 C5 F5 G5

I'm burning up and out and growing bored

C5 F5 D5

In my smoked out boring room

G5 C5

My hair is shagging in my eyes

G5 C5 F5 G5

Dragging my feet to hit the street tonight

C5 F5 D5

To drive along these shit town lights
[CHORUS]

C5 G5

I'm not growing up

C5 F5 G5

I'm just burning out

C5

And I stepped in line

F5 D5

to walk amongst the dead
[VERSE]

G5 C5

Apathy has rained on me

G5 C5 F5 G5

Now I'm feeling like a soggy dream

C5 F5 D5

So close to drowning but I don't mind

G5 C5

I've lived inside this mental cave

G5 C5 F5 G5

Throw my emotions in the grave

C5 F5 D5

Hell, who needs them anyway
[CHORUS]

C5 G5

I'm not growing up

C5 F5 G5

I'm just burning out

C5

And I stepped in line

F5 D5

to walk amongst the dead
C5 G5

I'm not growing up

C5 F5 G5

I'm just burning out

C5

And I stepped in line

F5 D5

to walk amongst the dead

D5

dead...
G5 F5 G5 x4
[CHORUS]

C5 G5

I'm not growing up

C5 F5 G5

I'm just burning out

C5

And I stepped in line

F5 D5

to walk amongst the dead
C5 G5

I'm not growing up

C5 F5 G5

I'm just burning out

C5

And I stepped in line

F5 D5

to walk amongst the dead

D5

dead...
G5 F5 G5
------------------------------------------------------------

Track 2: Having A Blast

------------------------------------------------------------

CHORDS USED

A5 G5 F#5 E5 D5 B5

e|---------------------------------------------------------------------------|

B|---------------------------------------------------------------------------|

G|-----------------------------------7-------4-------------------------------|

D|---7-------5-------4-------2-------7-------4-------------------------------|

A|---7-------5-------4-------2-------5-------2-------------------------------|

E|---5-------3-------2-------0-----------------------------------------------|

[INTRO]

A5 G5 x4
[VERSE]

A5

I'm taking all you down with me

F#5

Explosives duct taped to my spine

G5 E5

Nothings gonna change my mind

A5

I won't listen to anyone's last words

F#5

There's nothing left for you to say

G5 E5

Soon you'll be dead anyway
[CHORUS]

D5 A5

No one here is getting out alive

B5 G5

This time I've really lost my mind and I don't care

D5

So close your eyes

A5

And kiss yourself goodbye

B5 G5

And think about the times you spent and what they've meant

A5 G5

To me it's nothing...

A5 G5

To me it's nothing...

A5 G5

To me it's nothing...

A5 G5

To me it's nothing...
[VERSE]

A5

I'm losing all my happiness

F#5

The happiness you pinned on me

G5 E5

Loneliness still comforts me

A5

My anger dwells inside of me

F#5

I'm taking it all out on you

G5 E5

And all the shit you put me through
[CHORUS]

D5 A5

No one here is getting out alive

B5 G5

This time I've really lost my mind and I don't care

D5

So close your eyes

A5

And kiss yourself goodbye

B5 G5

And think about the times you spent and what they've meant

A5 G5

To me it's nothing...

A5 G5

To me it's nothing...

A5 G5

To me it's nothing...

A5 G5

To me it's nothing...
[BRIDGE]

A5 F#5 B5 E5

Do you ever think back to another time?

A5 F#5 D5 A5 E5

Does it bring you so down that you thought you lost your mind?
[OUTRO]

F#5 D5 A5

Do you ever want to lead a long trail of destruction

F#5 G5 A5 G5 A5

and mow down any bullshit that confronts you?

F#5 D5 A5

Do you ever build up all the small things in your head?

F#5 G5 A5 G5

To make one problem that adds up to nothing

A5 G5

To me it's nothing...

A5 G5

To me it's nothing...

A5 G5

To me it's nothing...
------------------------------------------------------------

Track 3: Chump

------------------------------------------------------------

CHORDS USED

B5 E F# A5

e|---------0------2----------------------------------------------------------|

B|---------0------2----------------------------------------------------------|

G|--4------1------3------2---------------------------------------------------|

D|--4------2------4------2---------------------------------------------------|

A|--2------2------4------0---------------------------------------------------|

E|---------0------2----------------------------------------------------------|

[Intro] : B5 E x2
[VERSE]

B5

I don't know you

E B5 E

But,I think I HATE you

B5 E F#

You're the reason for my misery

B5 E

Strange how you've become

B5 E

my biggest enemy

B5 E F#

And I've never even seen your face
[CHORUS]

A5 E B5

Maybe it's just jealousy

A5 E B5

Mixing up with a violent mind

A5 E B5

A circumstance that doesn't make much sense

A5 E B5

Or maybe I'm just dumb
(Repeat Intro)
[VERSE]

B5 E B5 E

You're the cloud hanging out over my head

B5 E

Hail comes crashing down

F#

welting my face

B5 E B5 E

Magic man, egocentric plastic man

B5 E F#

Yet you still get one over on me
[CHORUS]

A5 E B5

Maybe it's just jealousy

A5 E B5

Mixing up with a violent mind

A5 E B5

A circumstance that doesn't make much sense

A5 E B5

Or maybe I'm just dumb
------------------------------------------------------------

Track 4: Longview

------------------------------------------------------------

CHORDS USED

D5 B A5 E5

e|---------------------------------------------------------------------------|

B|---------------------------------------------------------------------------|

G|--7--------------------9---------------------------------------------------|

D|--7------9------7------9---------------------------------------------------|

A|--5------9------7------7---------------------------------------------------|

E|---------7------5----------------------------------------------------------|

[BASS]

G|-------------------------------9-7-6-7-|

D|-----9-7-6-----7-6-------9-7-6-0-0-0-0-|

A|-5h7-------7p5-----5-9p7---------------|

E|---------------------------------------|

[VERSE]

Sit around and watch the tube, but nothing's on

I change the channels for an hour or two

Twiddle my thumbs just for a bit

I'm sick of all the same old shit

In a house with unlocked doors

D5

And I'm fucking lazy
[CHORUS]

B5 A5 E5 B5

Bite my lip and close my eyes

A5 E5 B5

Take me away to paradise

A5 E5 B5

I'm so damn bored I'm going blind

A5 E5

And I smell like shit
[VERSE]

Peel me off this Velcro seat and get me moving

I sure as hell can't do it by myself

I'm feeling like a dog in heat

Barred indoors from the summer street

I locked the door to my own cell

D5

And I lost the key
[CHORUS]

B5 A5 E5 B5

Bite my lip and close my eyes

A5 E5 B5

Take me away to paradise

A5 E5 B5

I'm so damn bored I'm going blind

A5 E5

And I smell like shit
[BRIDGE]

E5 D5

I got no motivation

E5 D5

Where is my motivation?

E5 D5

No time for the motivation

E5 D5 B5 A5 E5 B5 A5 E5

Smoking my inspiration
[VERSE]

Sit around and watch the phone, but no one's calling

Call me pathetic, call me what you will

My mother says to get a job

But she don't like the one she's got

When masturbation's lost its fun

D5

You're fucking lonely
[CHORUS]

B5 A5 E5 B5

Bite my lip and close my eyes

A5 E5

Take me away to paradise

B5 A5

I'm so damn bored

E5 B5

I'm going blind

A5 E5

And loneliness has to suffice

B5 A5 E5 B5

Bite my lip and close my eyes

A5 E5

I was slipping away to paradise

B5 A5 E5 B5

Some say, "Quit or I'll go blind."

A5 E5

But it's just a myth
[OUTRO]

e|------------------------------12-------------------------------------------|

B|--9---9/10--10--7---9/10--12--12-------------------------------------------| Repeat few times

G|--9---9-----9---7---9-----9------------------------------------------------|

D|---------------------------------------------------------------------------|

A|---------------------------------------------------------------------------|

E|---------------------------------------------------------------------------|

------------------------------------------------------------

Track 5: Welcome To Paradise

------------------------------------------------------------

CHORDS USED

E5 D5 A5 G5 B5 C5 E

e|--------------------------------------------0------------------------------|

B|--------------------------------------------0------------------------------|

G|--9------7--------------------4------5------1------------------------------|

D|--9------7------7------5------4------5------2------------------------------|

A|--7------5------7------5------2------3------2------------------------------|

E|----------------5------3--------------------0------------------------------|

[INTRO]

E5 D5 A5 x4
[VERSE]

E5

Dear mother,

D5 E5

Can you hear me whining?

E5 D5

It's been three whole weeks

G5 A5 B5

Since that I have left your home'

E5 D5 E5

This sudden fear has left me trembling

E5 D5 G5 A5 B5

Cause now it seems that I am out here on my own

G5 A5 B5

And I'm feeling so a--lone
[CHORUS]

E G5

Pay attention to the cracked streets

A5 C5

And the broken homes

E G5

Some call it the slums

B5

Some call it nice

E G5

I want to take you through

A5 C5 E B5

a wasteland I like to call my home

E5 D5 A5 E5 D5 A5

Welcome To Paradise
[VERSE]

E5 D5 E5

A gunshot rings out at the station

E5 D5 G5 A5 B5

Another urchin snaps and left dead on his own

E5 D5 E5

It makes me wonder why I'm still here

E5 D5

For some strange reason it's now

G5 A5 B5

Feeling like my home

G5 A5 B5

And I'm never gonna go
[CHORUS]

E G5

Pay attention to the cracked streets

A5 C5

And the broken homes

E G5

Some call it the slums

B5

Some call it nice

E G5

I want to take you through

A5 C5 E B5

a wasteland I like to call my home

E5 D5 A5

Welcome To Paradise
E5 D5 A5 x3
[VERSE]

E5

Dear mother,

D5 E5

Can you hear me laughing

E5 D5

It's been six whole months

G5 A5 B5

Since that I have left your home

E5 D5 E5

It makes me wonder why I'm still here

E5 D5

For some strange reason it's now

G5 A5 B5

Feeling like my home

G5 A5 B5

And I'm never gonna go
[CHORUS]

E G5

Pay attention to the cracked streets

A5 C5

And the broken homes

E G5

Some call it the slums

B5

Some call it nice

E G5

I want to take you through

A5 C5 E B5

a wasteland I like to call my home

E5 D5 A5

Welcome To Paradise
E5 D5 A5 x3
(End on E5)
------------------------------------------------------------

Track 6: Pulling Teeth

------------------------------------------------------------

CHORDS USED

E A5 B5 C#5

e|-0-------------------------------------------------------------------------|

B|-0-------------------------------------------------------------------------|

G|-1-------2-------4-------6-------------------------------------------------|

D|-2-------2-------4-------6-------------------------------------------------|

A|-2-------0-------2-------4-------------------------------------------------|

E|-0-------------------------------------------------------------------------|

[INTRO] B5

B5 A5 E x3
[VERSE]

E A5

I'm all busted up

E B5

Broken bones and nasty cuts

E5 A5

Accidents will happen

E B5 E

But this time I can't get up

E A5

She comes to check on me

E B5

Making sure I'm on my knees

E A5

After all she's the one

E B5 E

Who put me in this state
[CHORUS]

C#5

Is she ultra-violent?

C#5

Is she disturbed?

E

I better tell her that I love her

C#5

Before she does it all over again

B5

Oh god, she's killing me!!!
[VERSE]

E A5

For now I'll lie around

E B5

hell, that's all I can really do

E A5

She takes good care of me

E B5 E

Just keep saying my love is true
[SOLO]

E A5 E B5 E A5 E B5 E
[CHORUS]

C#5

Is she ultra-violent?

C#5

Is she disturbed?

E

I better tell her that I love her

C#5

Before she does it all over again

B5 A5 E B5 A5 E

Oh god, she's killing me!!!
[BRIDGE]

B5 A5

Looking out my window for

E B5 A5 E

Someone that's passing by

B5 A5 E5 B5

No one knows I'm locked in here

B5

All I do is cry
[VERSE]

E A5

For now I'll lie around

E B5

hell, that's all I can really do

E A5

She takes good care of me

E B5 E

Just keep saying my love is true
------------------------------------------------------------

Track 7: Basket Case

------------------------------------------------------------

CHORDS USED

E5 B5 C#5 G#5 A5 D5

e|---------------------------------------------------------------------------|

B|---------------------------------------------------------------------------|

G|-9---------------6-----------------------7---------------------------------|

D|-9-------9-------6-------6-------7-------7---------------------------------|

A|-7-------9-------4-------6-------7-------5---------------------------------|

E|---------7---------------4-------5-----------------------------------------|

[VERSE]

E5 B5

Do you have the time

C#5 G#5

To listen to me whine

A5 E5

About nothing and everything

B5

All at once

E5 B5

I am one of those

C#5 G#5

Melodramatic fools

A5 E5

Neurotic to the bone

A5

No doubt about it
[CHORUS]

A5 B5 E5

Sometimes I give myself the creeps

A5 B5 E5

Sometimes my mind plays tricks on me

A5 B5

It all keeps adding up

E5 D5 C#5

I think I'm cracking up

A5 B5

Am I just paranoid?

E5 B5 C#5 B5 x2

Am I just stoned?
[VERSE]

E5 B5

I went to a shrink

C#5 G#5

To analyze my dreams

A5 E5

She says it's lack of sex

B5

That's bringing me down

E5 B5

I went to a whore

C#5 G#5

She said my life's a bore

A5 E5

So quit my whining cause

B5

It's bringing her down
[CHORUS]

A5 B5 E5

Sometimes I give myself the creeps

A5 B5 E5

Sometimes my mind plays tricks on me

A5 B5

It all keeps adding up

E5 D5 C#5

I think I'm cracking up

A5 B5

Am I just paranoid?

E5 B5 C#5 B5 x4

Uh, yuh, yuh, ya
A5 B5

Grasping to control

So I better hold on
E5 B5 C#5 G#5 A5 E5 B5 x2
[CHORUS]

A5 B5 E5

Sometimes I give myself the creeps

A5 B5 E5

Sometimes my mind plays tricks on me

A5 B5

It all keeps adding up

E5 D5 C#5

I think I'm cracking up

A5 B5

Am I just paranoid?

G#5 A5 G#5 A5 A5 E5 B5

Am I just stoned?
[OUTRO]

G#5 A5 G#5 A5 A5 E5 B5 x3
A5 E5 B5
------------------------------------------------------------

Track 8: She

------------------------------------------------------------

CHORDS USED

G5 D5 C5

e|---------------------------------------------------------------------------|

B|---------------------------------------------------------------------------|

G|---------7-------5---------------------------------------------------------|

D|-5-------7-------5---------------------------------------------------------|

A|-5-------5-------3---------------------------------------------------------|

E|-3-------------------------------------------------------------------------|

[VERSE]

G5

She...

D5

She screams in silence

C5 G5

A sullen riot penetrating through her mind

G5 D5

Waiting for a sign

C5 G5

To smash the silence with the brick of self-control
[Chorus]

D5

Are you locked up in a world

C5 G5

That's been planned out for you?

D5 C5 G5

Are you feeling like a social tool without a use?

C5 G5 C5 G5

Scream at me until my ears bleed

C5 G5 D5

I'm taking heed just for you
[VERSE]

G5

She...

D5

She's figured out

C5 G5

All her doubts were someone else's point of view

G5 D5

Waking up this time

C5 G5

To smash the silence with the brick of self-control
[Chorus]

D5

Are you locked up in a world

C5 G5

That's been planned out for you?

D5 C5 G5

Are you feeling like a social tool without a use?

C5 G5 C5 G5

Scream at me until my ears bleed

C5 G5 D5

I'm taking heed just for you
G5 D5 C5 G5 C5 G5 x2

EHHHHHH,AHHHHHHHHHH!!!
[Chorus]

D5

Are you locked up in a world

C5 G5

That's been planned out for you?

D5 C5 G5

Are you feeling like a social tool without a use?

C5 G5 C5 G5

Scream at me until my ears bleed

C5 G5 D5

I'm taking heed just for you
(End on G5)
------------------------------------------------------------

Track 9: Sassafras Roots

------------------------------------------------------------

CHORDS USED

A5 D5 E5 F#5

e|---------------------------------------------------------------------------|

B|---------------------------------------------------------------------------|

G|---------7-----------------------------------------------------------------|

D|-7-------7-------2-------4-------------------------------------------------|

A|-7-------5-------2-------4-------------------------------------------------|

E|-5---------------0-------2-------------------------------------------------|

[INTRO]

D5 A5 E5

A5 D5 E5 x2
[VERSE]

A5

Roaming 'round your house

D5 E5

WASTING YOUR TIME

A5

No obligation,just

D5 E5

WASTING YOUR TIME

A5

So why are you alone?

D5 E5

WASTING YOUR TIME

A5

When you could be with me

D5 E5

WASTING YOUR TIME
[CHORUS]

D5 E5

Well,I'm a WASTE like you

D5 E5

With nothing else to do

D5 A5 E5

May I WASTE your time too?
[VERSE]

A5

Warding off regrets

D5 E5

WASTING YOUR TIME

A5

Smoking cigarettes

D5 E5

WASTING YOUR TIME

A5

I'm just a PARASITE

D5 E5

WASTING YOUR TIME

A5

APPLYING myself to

D5 E5

WASTING YOUR TIME
[CHORUS]

D5 E5

Well,I'm a WASTE like you

D5 E5

With nothing else to do

D5 A5 E5

May I WASTE your time too?
A5 D5 E5 x2

F#5 D5 F#5 D5 F#5 D5 E5
[VERSE]

A5

So why are you alone?

D5 E5

WASTING YOUR TIME

A5

When you could be with me

D5 E5

WASTING YOUR TIME
[CHORUS]

D5 E5

Well,I'm a WASTE like you

D5 E5

With nothing else to do

D5 A5 E5

May I WASTE your time too?

D5 A5 E5

May I WASTE your time too?

D5 A5 E5

May I WASTE your time too?

D5 A5 E5

May I WASTE your time too?
------------------------------------------------------------

Track 10: When I Come Around

------------------------------------------------------------

CHORDS USED

G5 D5 E5 C5 A5

e|---------------------------------------------------------------------------|

B|---------------------------------------------------------------------------|

G|---------7-------9-------5-------------------------------------------------|

D|-5-------7-------9-------5-------7-----------------------------------------|

A|-5-------5-------7-------3-------7-----------------------------------------|

E|-3-------------------------------5-----------------------------------------|

[INTRO]

G5 D5 E5 C5 x3
[VERSE]

G5 D5 E5 C5

--I heard you crying loud,

G5 D5 E5 C5

all the way across town

G5 D5

You've been searching for that someone,

E5 C5

and it's me out on the prowl

G5 D5 E5 C5

As you sit around feeling sorry for yourself

G5 D5 E5 C5

--Well, don't get lonely now

G5 D5 E5 C5

--And dry your whining eyes

G5 D5

I'm just roaming for the moment

E5 C5 G5

Sleazin' my back yard so don't get so uptight

D5 E5 C5

you been thinking about ditching me
[CHORUS]

A5 C5

No time to search the world around

A5 C5

Cause you know where I'll be found

G5 D5 E5 C5 x2

When I come around
[VERSE]

G5 D5 E5 C5

--I heard it all before

G5 D5 E5 C5

--So don't knock down my door

G5 D5 E5 C5

I'm a loser and a user so I don't need no accuser

G5 D5 E5 C5

to try and flag me down because I know you're right

G5 D5 E5 C5

--So go do what you like

G5 D5 E5 C5

--Make sure you do it wise

G5 C5 E5 C5

You may find out that your self-doubt means nothing was ever there

G5 D5 E5 C5

You can't go forcing something if it's just not right
[CHORUS]

A5 C5

No time to search the world around

A5 C5

Cause you know where I'll be found

G5 D5 E5 C5 x2

When I come around
[SOLO]

G5 D5 E5 C5
[CHORUS]

A5 C5

No time to search the world around

A5 C5

Cause you know where I'll be found

G5 D5 E5 C5

When I come around

G5 D5 E5 C5

When I come around

G5 D5 E5 C5

When I come around

G5 D5 E5 C5

When I come around
------------------------------------------------------------

Track 11: Coming Clean

------------------------------------------------------------

CHORDS USED

B5 G#5 F#5 E5

e|---------------------------------------------------------------------------|

B|---------------------------------------------------------------------------|

G|-4-------------------------------------------------------------------------|

D|-4-------6-------4-------2-------------------------------------------------|

A|-2-------6-------4-------2-------------------------------------------------|

E|---------4-------2-------0-------------------------------------------------|

B5 G#5

Seventeen and strung out on confusion

B5 G#5

Trapped inside a roll of disillusion

F#5 E5

I found out what it takes to be a man

F#5 E5

Well, Mom and Dad will never understand

B5 G#5

Secrets collecting dust but never forget

B5 G#5

SKELETONS come to LIFE in my closet

F#5 E5

I found out what it takes to be a man

F#5 E5

Well, Mom and Dad will never understand

(SOLO BEGINS)

WHAT'S HAPPENING TO ME
[SOLO]

B5 G#5 B5 G#5 F#5 E5 F#5 E5
B5 G#5

Seventeen and COMING CLEAN for the first time

B5 G#5

I finally figured out myself for the first time

F#5 E5

I found out what it takes to be a man

F#5 E5

Well, Mom and Dad will never understand

B5

WHAT'S HAPPENING TO ME
(End on B5)
------------------------------------------------------------

Track 12: Emenius Sleepus

------------------------------------------------------------

Chords Used

B5 E A5 F#5

e|--------0-----------------------------------------------------------------|

B|--------0-----------------------------------------------------------------|

G|-4------1------2----------------------------------------------------------|

D|-4------2------2------4---------------------------------------------------|

A|-2------2------0------4---------------------------------------------------|

E|--------0-------------2---------------------------------------------------|

Intro : B5 E (x3) A5 F#5
(Verse)

B5 E (x3) A5 F#5
(Chorus)

E F#5 (x3) B5 E B5 F#5 B5 E A5 F#5
(Repeat Verse)
(Repeat Chorus)
(Bridge)

B5 A5

Anybody ever say no?

B5 A5

Ever tell you that you weren't right?

B5 A5

Where did all the little kid go?

B5 A5

Did you lose it in a hateful fight?

F#5

And you know it's true
(Repeat Chorus)
LYRICS
I saw my friend the other day and I don't know

Exactly just what he became

It goes to show
It wasn't long ago

I was just like you

And now I think I'm sick and I wanna go home
How have I been,how have you been

It's been so long

What have you done with all your time

And what went wrong
I knew you back when

And you ... you knew me

And now I think I'm sick and I wanna go home
Anybody ever say no?

Ever tell you that you weren't right?

Where did all the little kid go?

Did you lose it in a hateful fight?

And you know it's true
It wasn't long ago

I was just like you

And now I think you're sick and I wanna go home
------------------------------------------------------------

Track 13: In The End

------------------------------------------------------------

CHORDS USED

A5 G5 D5 E5 F#5

e|---------------------------------------------------------------------------|

B|---------------------------------------------------------------------------|

G|-----------------7-------9-------------------------------------------------|

D|-7-------5-------7-------9-------4-----------------------------------------|

A|-7-------5-------5-------7-------4-----------------------------------------|

E|-5-------3-----------------------2-----------------------------------------|

[VERSE]

A5 G5

All brawn and no brains

A5 G5

And all those nice things

A5 G5 A5 G5

You FINALLY got what you want

A5 G5

Someone to look good with

A5 G5

AND light your cigarette

A5 G5 A5

Is this what you really want?
[CHORUS]

D5 E5

I figured out what you're all about

A5 F#5

And I don't think I like what I see

SOOOOO ...

D5 E5

I HOPE I won't be there in the end

A5 G5 A5 G5

if you come around.
How long will he last

Before he's a CREEP in the past

And you're alone once again?

Will you pop up AGAIN and be my

"SPECIAL FRIEND" 'till the end?

And when will that be?
I figured out what you're all about

And I don't think I like what I see

SOOOOO ...

I HOPE I won't be there in the end

if you come around.
I figured out what you're all about

And I don't think I like what I see

SOOOOO ...

I HOPE I won't be there in the end

if you come around.
------------------------------------------------------------

Track 14: F.O.D.

------------------------------------------------------------

CHORDS USED

A5 G5 E5 D5 C#5

e|---------------------------------------------------------------------------|

B|---------------------------------------------------------------------------|

G|-----------------9-------7-------6-----------------------------------------|

D|-7-------5-------9-------7-------6-----------------------------------------|

A|-7-------5-------7-------5-------4-----------------------------------------|

E|-5-------3-----------------------------------------------------------------|

[VERSE]

A5

Something's on my mind

A5

It's been for quite some time

G5 A5

This time I'm on to you

A5

So where's the other face?

A5

The face I heard before

G5 A5

Your head trip's boring me
[PRE-CHORUS]

E5 G5

Let's nuke the bridge we torched

D5 A5

2,000 times before

E5 G5 D5

This time we'll blast it all to hell

E5 G5 D5

I've had this burning in my guts now

A5

for so long

E5 G5 D5

My belly's aching now to say
[VERSE]

A5

Stuck down in a rut of dislogic and smut

G5 A5

A side of you well hid

A5

When it's all said and done

A5

it's real and it's been fun

G5 A5

But was it all REAL fun
[PRE-CHORUS]

E5 G5

Let's nuke the bridge we torched

D5 A5

2,000 times before

E5 G5 D5

This time we'll blast it all to hell

E5 G5 D5

I've had this burning in my guts now

A5

for so long

E5 G5 D5

My belly's aching now to say

D5

to say...
D5/C#5 A5 D5/C#5 G5 x2
[CHORUS]

D5/C#5 A5 D5/C#5 G5

--------You're just...... a fuck,

D5/C#5 A5 D5/C#5 G5

--------I can't explain it 'cause ---I think you suck.

D5/C#5 A5

--------I'm take-

D5/C#5 G5

-------in pride

D5/C#5 A5 D5/C#5 G5

-----in telling you to fuck off and die.

[PRE-CHORUS]

E5 G5 D5

I've had this burning in my guts now

A5

for so long

E5 G5 D5

My belly's aching now to say

E5 G5 D5

I'm taking pleasure in the doubts

A5

I've passed to you

E5 G5 D5

So listen up as you bite thisssss...
[CHORUS]

D5/C#5 A5 D5/C#5 G5

--------You're just...... a fuck,

D5/C#5 A5 D5/C#5 G5

--------I can't explain it 'cause ---I think you suck.

D5/C#5 A5

--------I'm take-

D5/C#5 G5

-------in pride

D5/C#5 A5 D5/C#5 G5

-----in telling you to fuck off and die.

[D5/C#5 A5 D5/C#5 G5] X4

Goood niiiiiiiiight....
------------------------------------------------------------

All By Myself (Hidden Track)

------------------------------------------------------------

CHORDS USED

D G E A

e|-2-------3-------0-------0-------------------------------------------------|

B|-3-------3-------0-------2-------------------------------------------------|

G|-2-------0-------1-------2-------------------------------------------------|

D|-0-------0-------2-------2-------------------------------------------------|

A|---------2-------2-------0-------------------------------------------------|

E|---------3-------0---------------------------------------------------------|

[INTRO]

D G D G
D G D G

I was alone,-----I was all by myself

D G D G

No one was looking, I was thinking of you

D G

Oh yeah, did I mention

E A

I was all by myself

E A

All by myself...

E A

All by myself...

E A

All by myself...
D G D G

I went to your house,----but no one was there

D G

I went in your room

D G

I was all by myself
E A

You and me had

E A

Such wonderful times

E A

When I'm all by myself,

E A

All by myself

[repeat several times]
(End on A)

Sponsors:

Chord Lainnya
Green Day - 21 guns acoustic
Green Day - 21st century breakdown
Green Day - 21st century breakdown - version 1
Green Day - 409 in your coffeemaker
Green Day - 80
Green Day - 8th avenue serenade
Green Day - 8th avenue serenade - version 1
Lihat kumpulan Chord gitar Green Day Lengkap disini.

Kata Kunci yang sering digunakan dalam pencarian chord gitar: