Mancanegara Musik 80'an Dangdut Malaysia Lagu Religi Lagu Anak Acara TV Radio Artikel

Chord gitar J Rocks - Tersesal (Guitar tabs)

Advertisements

Chord gitar lagu / Kunci gitar lagu J Rocks - Tersesal (Guitar tabs) - ( 2560 )
                                                                                          Tersesal                                                                                            


                                                                                                                                                                                       J-Rocks
Gitar 1



E||-------|-------|-------|-------|-------|-------|-------|-------|-------|-------|-------|-------|-------|-------|-------|-------|-------|-------|-------|-------|-------|-------|-------|
B||-------|-------|-------|-------|-------|-------|-------|-------|-------|-------|-------|-------|-------|-------|-------|-------|-------|-------|-------|-------|-------|-------|-------|
G||-------|-------|-------|-------|-------|-------|-------|-------|-------|-------|-------|-------|-------|-------|-------|-------|-------|-------|-------|-------|-------|-------|-------|
D||-------|-------|-------|-------|-------|-------|-------|-------|-------|-------|-------|-------|-------|-------|-------|-------|-------|-------|-------|-------|-------|-------|-------|
A||-------|-------|-------|-------|-------|-------|-------|-------|-------|-------|-------|-------|-------|-------|-------|-------|-------|-------|-------|-------|-------|-------|-------|
E||-------|-------|-------|-------|-------|-------|-------|-------|-------|-------|-------|-------|-------|-------|-------|-------|-------|-------|-------|-------|-------|-------|-------|


-------|-------|-------|-------|-------|-------|-------|-------|-------|-------|-------|-------|-------|-------|-------|-------|-------|-------|-------|-------|-------|-------|-------|
-------|-------|-------|-------|-------|-------|-------|-------|-------|-------|-------|-------|-------|-------|-------|-------|-------|-------|-------|-------|-------|-------|-------|
-------|-------|-------|-------|-------|-------|-------|-------|-------|-------|-------|-------|-------|-------|-------|-------|-------|-------|-------|-------|-------|-------|-------|
-------|-------|-------|-------|-------|-------|-------|-------|-------|-------|-------|-------|-------|-------|-------|-------|-------|-------|-------|-------|-------|-------|-------|
-------|-------|-------|-------|-------|-------|-------|-------|-------|-------|-------|-------|-------|-------|-------|-------|-------|-------|-------|-------|-------|-------|-------|
-------|-------|-------|-------|-------|-------|-------|-------|-------|-------|-------|-------|-------|-------|-------|-------|-------|-------|-------|-------|-------|-------|-------|


                                                                                                          S S S S Q    E    E     S S S S Q    E    E     S S S S Q    E    E   
-------|-------|-------|-------|-------|-------|-------|-------|-------|-------|-------|-------|-------|-----------------------|-----------------------|-----------------------|
-------|-------|-------|-------|-------|-------|-------|-------|-------|-------|-------|-------|-------|-----------------------|-----------------------|-----------------------|
-------|-------|-------|-------|-------|-------|-------|-------|-------|-------|-------|-------|-------|-----------------------|-----------------------|-----------------------|
-------|-------|-------|-------|-------|-------|-------|-------|-------|-------|-------|-------|-------|----------9----9s--10--|----------9----9s--10--|----------9----9s--10--|
-------|-------|-------|-------|-------|-------|-------|-------|-------|-------|-------|-------|-------|--0-0-0----------------|-----------------------|-----------------------|
-------|-------|-------|-------|-------|-------|-------|-------|-------|-------|-------|-------|-------|-----------------------|--5-5-5----------------|--5-5-5----------------|


  E  Q    E.  S E     S S S S Q    E    E     S S S S Q    E    E     S S S S Q    E    E     E  Q    E.  S E     S S S S Q    E   E     S S S S Q    E   E     S S S S Q    E   E   
-------------------|-----------------------|-----------------------|-----------------------|-------------------|----------------------|----------------------|----------------------|
-------------------|-----------------------|-----------------------|-----------------------|-------------------|----------------------|----------------------|----------------------|
-------------------|-----------------------|-----------------------|-----------------------|-------------------|----------7----7s--9--|----------7----7s--9--|----------7----7s--9--|
--3--3----3-----3--|----------9----9s--10--|----------9----9s--10--|----------9----9s--10--|--3--3----3-----3--|----------------------|----------------------|----------------------|
--3--3----3-----3--|--0-0-0----------------|-----------------------|-----------------------|--3--3----3-----3--|----------------------|----------------------|----------------------|
--1--1----1-----1--|-----------------------|--5-5-5----------------|--5-5-5----------------|--1--1----1-----1--|--5-5-5---------------|--5-5-5---------------|--5-5-5---------------|


  E  Q    E.  S E     S S S S Q    E   E     S S S S Q    E   E     S S S S Q    E   E     E  Q    E.  S E      T  T  T  T  E    Q     T  T  T  T  T  T  T  T  E    E   
-------------------|----------------------|----------------------|----------------------|-------------------|-------------------------------------------------17s--20--|
-------------------|----------------------|----------------------|----------------------|-------------------|--------------15s--17-------------------------17----------|
-------------------|----------7----7s--9--|----------7----7s--9--|----------7----7s--9--|-------------------|-----------14------------14----------------17-------------|
--3--3----3-----3--|----------------------|----------------------|----------------------|--3--3----3-----3--|--------14------------------14----------19----------------|
--3--3----3-----3--|----------------------|----------------------|----------------------|--3--3----3-----3--|-----15------------------------15----19-------------------|
--1--1----1-----1--|--5-5-5---------------|--5-5-5---------------|--5-5-5---------------|--1--1----1-----1--|--17------------------------------17----------------------|


   S  S  S  S  S  H          E.      W                     W                   E  E  E  E  E  E  E  E     E  E  E  E  E  E  E  E     E  E  E  E  E  E  E  E     E  E  E  E  E  E  E  E   
--20-17--------------------------|---------------------|--------------------|--------------------------|--------------------------|--------------------------|--------------------------|
--------20-17----20b---------L---|---L~----------------|---L----------------|--------------------------|--------------------------|--------------------------|--------------------------|
--------------17-----------------|---------------------|--------------------|--------------------------|--------------------------|--7--7--7--7--7--7--7--7--|--7--7--7--7--7--7--7--7--|
---------------------------------|---------------------|--------------------|--7--7--7--7--7--7--7--7--|--7--7--7--7--7--7--7--7--|--7--7--7--7--7--7--7--7--|--7--7--7--7--7--7--7--7--|
---------------------------------|---------------------|--------------------|--7--7--7--7--7--7--7--7--|--7--7--7--7--7--7--7--7--|--5--5--5--5--5--5--5--5--|--5--5--5--5--5--5--5--5--|
---------------------------------|---------------------|--------------------|--5--5--5--5--5--5--5--5--|--5--5--5--5--5--5--5--5--|--------------------------|--------------------------|


  E  E  E  E  E  E  E  E     E  E  E  E  E  E  E  E     E  E  E  E  E  E  E  E     E  E  E  E  E  E  E  E     E  E  E  E  E  E  E  E     E  E  E  E  E  E  E  E     E  E  E  E  E  E  E  E   
--------------------------|--------------------------|--------------------------|--------------------------|--------------------------|--------------------------|--------------------------|
--------------------------|--------------------------|--------------------------|--------------------------|--------------------------|--------------------------|--------------------------|
--------------------------|--------------------------|--2--2--2--2--2--2--2--2--|--------------------------|--------------------------|--------------------------|--4--4--4--4--4--4--4--4--|
--6--6--6--6--6--6--6--6--|--2--2--2--2--2--2--2--2--|--2--2--2--2--2--2--2--2--|--5--5--5--5--5--5--5--5--|--3--3--3--3--3--3--3--3--|--3--3--3--3--3--3--3--3--|--4--4--4--4--4--4--4--4--|
--6--6--6--6--6--6--6--6--|--2--2--2--2--2--2--2--2--|--0--0--0--0--0--0--0--0--|--5--5--5--5--5--5--5--5--|--3--3--3--3--3--3--3--3--|--3--3--3--3--3--3--3--3--|--2--2--2--2--2--2--2--2--|
--4--4--4--4--4--4--4--4--|--0--0--0--0--0--0--0--0--|--------------------------|--3--3--3--3--3--3--3--3--|--1--1--1--1--1--1--1--1--|--1--1--1--1--1--1--1--1--|--------------------------|


  E  E  E  E  E  E  E  E     E  E  E  E  E  E  E  E     E  E  E  E  E  E  E  E     E  E  E  E  E  E  E  E     E  E  E  E  E  E  E  E     E  E  E  E  E  E  E  E     E  E  E  E  E  E  E  E   
--------------------------|--------------------------|--------------------------|--------------------------|--------------------------|--------------------------|--------------------------|
--------------------------|--------------------------|--------------------------|--------------------------|--------------------------|--------------------------|--------------------------|
--4--4--4--4--4--4--4--4--|--4--4--4--4--4--4--4--4--|--4--4--4--4--4--4--4--4--|--------------------------|--------------------------|--------------------------|--------------------------|
--4--4--4--4--4--4--4--4--|--4--4--4--4--4--4--4--4--|--4--4--4--4--4--4--4--4--|--6--6--6--6--6--6--6--6--|--2--2--2--2--2--2--2--2--|--7--7--7--7--7--7--7--7--|--7--7--7--7--7--7--7--7--|
--2--2--2--2--2--2--2--2--|--2--2--2--2--2--2--2--2--|--2--2--2--2--2--2--2--2--|--6--6--6--6--6--6--6--6--|--2--2--2--2--2--2--2--2--|--7--7--7--7--7--7--7--7--|--7--7--7--7--7--7--7--7--|
--------------------------|--------------------------|--------------------------|--4--4--4--4--4--4--4--4--|--0--0--0--0--0--0--0--0--|--5--5--5--5--5--5--5--5--|--5--5--5--5--5--5--5--5--|


  E  E  E  E  E  E  E  E     E  E  E  E  E  E  E  E     E  E  E  E  E  E  E  E     E  E  E  E  E  E  E  E     E  E  E  E  E  E  E  E     E  E  E  E  E  E  E  E     E  E  E  E  E  E  E  E   
--------------------------|--------------------------|--------------------------|--------------------------|--------------------------|--------------------------|--------------------------|
--------------------------|--------------------------|--------------------------|--------------------------|--------------------------|--------------------------|--------------------------|
--7--7--7--7--7--7--7--7--|--7--7--7--7--7--7--7--7--|--------------------------|--------------------------|--2--2--2--2--2--2--2--2--|--------------------------|--------------------------|
--7--7--7--7--7--7--7--7--|--7--7--7--7--7--7--7--7--|--6--6--6--6--6--6--6--6--|--2--2--2--2--2--2--2--2--|--2--2--2--2--2--2--2--2--|--5--5--5--5--5--5--5--5--|--3--3--3--3--3--3--3--3--|
--5--5--5--5--5--5--5--5--|--5--5--5--5--5--5--5--5--|--6--6--6--6--6--6--6--6--|--2--2--2--2--2--2--2--2--|--0--0--0--0--0--0--0--0--|--5--5--5--5--5--5--5--5--|--3--3--3--3--3--3--3--3--|
--------------------------|--------------------------|--4--4--4--4--4--4--4--4--|--0--0--0--0--0--0--0--0--|--------------------------|--3--3--3--3--3--3--3--3--|--1--1--1--1--1--1--1--1--|


  E  E  E  E  E  E  E  E     E  E  E  E  E  E  E  E     E  E  E  E  E  E  E  E     E  E  E  E  E  E  E  E     E  E  E  E  E  E  E  E     E  E  E  E  E  E  E  E     Q    H.            
--------------------------|--------------------------|--------------------------|--------------------------|--------------------------|--------------------------|--------------------|
--------------------------|--------------------------|--------------------------|--------------------------|--------------------------|--------------------------|--------------------|
--------------------------|--4--4--4--4--4--4--4--4--|--4--4--4--4--4--4--4--4--|--4--4--4--4--4--4--4--4--|--4--4--4--4--4--4--4--4--|--------------------------|--------------------|
--3--3--3--3--3--3--3--3--|--4--4--4--4--4--4--4--4--|--4--4--4--4--4--4--4--4--|--4--4--4--4--4--4--4--4--|--4--4--4--4--4--4--4--4--|--6--6--6--6--6--6--6--6--|--6-----------------|
--3--3--3--3--3--3--3--3--|--2--2--2--2--2--2--2--2--|--2--2--2--2--2--2--2--2--|--2--2--2--2--2--2--2--2--|--2--2--2--2--2--2--2--2--|--6--6--6--6--6--6--6--6--|--6-----------------|
--1--1--1--1--1--1--1--1--|--------------------------|--------------------------|--------------------------|--------------------------|--4--4--4--4--4--4--4--4--|--4-----------------|


  H.           H.              W.                  W.                  W.                  H.           H.              W.                  W.                  W                E  Q.      
----------------------------|-------------------|-------------------|-------------------|----------------------------|-------------------|-------------------|-----------------------------|
----------------------------|-------------------|-------------------|-------------------|----------------------------|-------------------|-------------------|-----------------------------|
--7-------------------------|--5----------------|-------------------|-------------------|--7-------------------------|--5----------------|-------------------|-----------------------------|
--7------------5------------|--5----------------|--6----------------|--7----------------|--7------------5------------|--5----------------|--6----------------|--7----------------L---------|
--5------------5------------|--3----------------|--6----------------|--7----------------|--5------------5------------|--3----------------|--6----------------|--7----------------L---------|
---------------3------------|-------------------|--4----------------|--5----------------|---------------3------------|-------------------|--4----------------|--5----------------L---------|


                                                                                                                                                                    TP  TP  
  E.  S  E   E   E  E     E   E   Q     Q       Q     E   E   E  E      E   E   Q     Q       E  E   E   E   E  E      E   E   Q    Q       W                E  E   E   E   
-----------------------|---------------------|----------------------|----------------------|-----------------------|---------------------|-------------------------13--15--|
-----------------------|---------------------|----------------------|--10--11--13~---------|--------22--20--18-----|--17--18--20---------|---------------------------------|
-----------------------|---------------------|--7----14--12--10-----|----------------------|-----------------------|---------------------|---------------------------------|
--7-----14--12--10-----|--9--10--12~---------|--7-------------------|----------------------|--9--------------------|---------------------|--2----------------L--L----------|
--7--------------------|---------------------|--5-------------------|----------------------|--9--------------------|---------------------|--2----------------L--L----------|
--5--------------------|---------------------|----------------------|----------------------|--7--------------------|---------------------|--0----------------L--L----------|


   TP            TP               TP            TP               TP            TP               TP           TP               TP            TP               TP            TP            
   H.            H.               H.            H.               H.            H.               H.           H.               H.            H.               H.            H.            
--17------------13------------|--15------------12------------|--13------------10------------|--12------------9------------|--17------------13------------|--15------------12------------|
------------------------------|------------------------------|------------------------------|-----------------------------|------------------------------|------------------------------|
------------------------------|------------------------------|------------------------------|-----------------------------|------------------------------|------------------------------|
------------------------------|------------------------------|------------------------------|-----------------------------|------------------------------|------------------------------|
------------------------------|------------------------------|------------------------------|-----------------------------|------------------------------|------------------------------|
------------------------------|------------------------------|------------------------------|-----------------------------|------------------------------|------------------------------|


   TP            TP              PM PM PM PM                      PM PM PM PM                      PM PM PM PM                            PM PM PM PM                          
   H.            H.              E  E  E  Q    H.           E     E  E  E  Q    H.           E     E  E  E  Q    S S E  E  E  E  Q        E  E  E  Q    S S E  E  E  E  Q      
--13------------10------------|--------------------------------|--------------------------------|--------------------------------------|--------------------------------------|
------------------------------|--------------------------------|--------------------------------|--------------------9--9--9--9--L----|--------------------9--9--9--9--L----|
------------------------------|--------------------------------|--------------------------------|--------------------------------------|--------------------------------------|
------------------------------|--------------------------------|--------------------------------|--------------------6--6--6--6--L----|--------------------6--6--6--6--L----|
------------------------------|--3--3--3--3--------------------|--3--3--3--3--------------------|--2--2--2--2--------------------------|--2--2--2--2--------------------------|
------------------------------|--1--1--1--1--------------------|--1--1--1--1--------------------|--0--0--0--0--------------------------|--0--0--0--0--------------------------|


  PM PM PM PM                                PM PM PM PM                                PM PM PM PM                            PM PM PM PM                          
  E  E  E  Q    S S  E   E   E   E  Q        E  E  E  Q    S S  E   E   E   E  Q        E  E  E  Q    S S E  E  E  E  Q        E  E  E  Q    S S E  E  E  E  Q      
------------------------------------------|------------------------------------------|--------------------------------------|--------------------------------------|
--------------------10--10--10--10--L----|--------------------10--10--10--10--L----|--------------------9--9--9--9--L----|--------------------9--9--9--9--L----|
------------------------------------------|------------------------------------------|--------------------------------------|--------------------------------------|
---------------------7---7---7---7--L----|---------------------7---7---7---7--L----|--------------------6--6--6--6--L----|--------------------6--6--6--6--L----|
--3--3--3--3------------------------------|--3--3--3--3------------------------------|--2--2--2--2--------------------------|--2--2--2--2--------------------------|
--1--1--1--1------------------------------|--1--1--1--1------------------------------|--0--0--0--0--------------------------|--0--0--0--0--------------------------|


  Q    Q    Q    Q    Q    Q       Q    Q    Q    Q    Q     Q       E  E  E  E  E  E  E  E  E  E  E  E     E  E  E  E  E  E  E  E  E  E  E  E     E  E  E  E  E  E  Q    H         
--------------------------------|---------------------------------|--------------------------------------|--------------------------------------|----------------------------------|
--------------------------------|---------------------------------|--------------------------------------|--6--5--------------------------------|----------------------------------|
--------------------------------|---------------------------------|--2--1--------------------------------|--------7--5--------------------------|----------------------------------|
--------------------------------|---------------------------------|--------3--2--------------------------|--------------9--7--6--7--9--7--6--3--|--2--3--6--3--2--0--2-------------|
--------------------------------|---------------------------------|--------------5--3--2--3--5--3--2--0--|--------------------------------------|----------------------------------|
--1----3----5----4----5----7----|--5----7----8----7----8----10----|--------------------------------------|--------------------------------------|----------------------------------|


  H.           H.              W.                  W.                  W.                  H.           H.              W.                  W.                  W                E  Q.      
----------------------------|-------------------|-------------------|-------------------|----------------------------|-------------------|-------------------|-----------------------------|
----------------------------|-------------------|-------------------|-------------------|----------------------------|-------------------|-------------------|-----------------------------|
--7-------------------------|--5----------------|-------------------|-------------------|--7-------------------------|--5----------------|-------------------|-----------------------------|
--7------------5------------|--5----------------|--6----------------|--7----------------|--7------------5------------|--5----------------|--6----------------|--7----------------L---------|
--5------------5------------|--3----------------|--6----------------|--7----------------|--5------------5------------|--3----------------|--6----------------|--7----------------L---------|
---------------3------------|-------------------|--4----------------|--5----------------|---------------3------------|-------------------|--4----------------|--5----------------L---------|


---------|---------|---------|---------|---------|---------|---------|---------|---------||
---------|---------|---------|---------|---------|---------|---------|---------|---------||
---------|---------|---------|---------|---------|---------|---------|---------|---------||
---------|---------|---------|---------|---------|---------|---------|---------|---------||
---------|---------|---------|---------|---------|---------|---------|---------|---------||
---------|---------|---------|---------|---------|---------|---------|---------|---------||


                                                                                          Tersesal                                                                                            


                                                                                                                                                                                       J-Rocks
Gitar 2



      E   E  E  E  E  E  E   E       E   E  E  E  E  E  E   E       E   E  E  E  E  E  E   E       E   E  E  E  E  E  E   E       E   E  E  E  E  E  E   E       E   E  E  E  E  E  E   E    
E||----------------0-------------|----------------0-------------|----------------0-------------|----------------0-------------|----------------0-------------|----------------0-------------|
B||----------1-----------1-------|----------1-----------1-------|----------1-----------1-------|----------1-----------1-------|----------1-----------1-------|----------1-----------1-------|
G||-------------2-----2-----(2)--|-------------2-----2-----(2)--|-------------2-----2-----(2)--|-------------2-----2-----(2)--|-------------2-----2-----(2)--|-------------2-----2-----(2)--|
D||-------2----------------------|-------2----------------------|-------2----------------------|-------2----------------------|-------2----------------------|-------2----------------------|
A||--(0)-------------------------|--(0)-------------------------|--(0)-------------------------|--(0)-------------------------|--(0)-------------------------|--(0)-------------------------|
E||------------------------------|------------------------------|------------------------------|------------------------------|------------------------------|------------------------------|


   E   E  E  E  E  E  E   E       E   E  E  E  E  E  E   E       E   E  E  E  E  E  E   E       E   E  E  E  E  E  E   E       E   E  E  E  E  E  E   E       E   E  E  E  E  E  E   E    
----------------0-------------|----------------0-------------|----------------0-------------|----------------0-------------|----------------0-------------|----------------0-------------|
----------1-----------1-------|----------1-----------1-------|----------1-----------1-------|----------1-----------1-------|----------1-----------1-------|----------1-----------1-------|
-------------2-----2-----(2)--|-------------2-----2-----(2)--|-------------2-----2-----(2)--|-------------2-----2-----(2)--|-------------2-----2-----(2)--|-------------2-----2-----(2)--|
-------2----------------------|-------2----------------------|-------2----------------------|-------2----------------------|-------2----------------------|-------2----------------------|
--(0)-------------------------|--(0)-------------------------|--(0)-------------------------|--(0)-------------------------|--(0)-------------------------|--(0)-------------------------|
------------------------------|------------------------------|------------------------------|------------------------------|------------------------------|------------------------------|


   E   E  E  E  E  E  E   E       E   E  E  E  E  E  E   E      E  E  E  E  E  E  E  E     E  E  E  E  E  E  E  E     E  E  E  E  E  E  E  E     E  E  E  E  E  E  E  E   
----------------0-------------|----------------0-------------|-----------1-----1-----1--|-----------1-----1-----1--|--------0-----0--------0--|--------0-----0--------0--|
----------1-----------1-------|----------1-----------1-------|--------------0-----1-----|--------------0-----1-----|-----0-----0-----0--------|-----0-----0-----0--------|
-------------2-----2-----(2)--|-------------2-----2-----(2)--|--------2-----------------|--------2-----------------|--------------------1-----|--------------------1-----|
-------2----------------------|-------2----------------------|-----2--------------------|-----2--------------------|--------------------------|--------------------------|
--(0)-------------------------|--(0)-------------------------|--0-----------------------|--0-----------------------|--------------------------|----------------------

Pencarian

Klik disini untuk share lewat aplikasi WhatsApp

Klik disini untuk mencari chord gitar via aplikasi Telegram

Advertisements


Chord Lainnya
J Rocks - Berharap Kau Kembali
J Rocks - Cahaya
J Rocks - Ceria
J Rocks - Ceria [bass tab]
J Rocks - Ceria [Tab]
J Rocks - Cobalah Kau Mengerti
J Rocks - Cobalah Kau Mengerti (Guitar Tab)
Lihat kumpulan Chord gitar J Rocks Lengkap disini.
Klik di sini untuk rekomendasikan Chord kepada teman!

Sponsors:


Klik di sini untuk rekomendasikan chord kepada teman

Kata Kunci yang sering digunakan dalam pencarian chord gitar: