Mancanegara Musik 80'an Dangdut Malaysia Lagu Religi Lagu Anak Acara TV Radio Artikel

Chord gitar J Rocks - Cobalah Kau Mengerti (Guitar Tab)

Advertisements

Chord gitar lagu / Kunci gitar lagu J Rocks - Cobalah Kau Mengerti (Guitar Tab) - ( 1477 )
                                                                                    Cobalah Kau Mengerti                                                                                      


                                                                                                                                                                                       J-Rocks
Gitar



      W                 3x  W                    H         E  E  S  S  E       H         E  E  E   E       H         E   E  S   S E     H          E  E  E   E   
E||---------------------||-------------------|-----------------------------|---------------------------|-----------------------------|--------------------------|
B||---------------------||-------------------|-----------------------------|---------------------------|-----------------------------|--------------------------|
G||*-------------------*||-------------------|--/9~--------7--9--7S-9------|----------------7--9--10b--|--10~--------9--10--9S-10-7--|--L~------------7--9--10--|
D||*-------------------*||-------------------|------------------------10~--|---L--------10-------------|-----------------------------|------------10------------|
A||---------------------||-------------------|-----------------------------|---------------------------|-----------------------------|--------------------------|
E||---------------------||-------------------|-----------------------------|---------------------------|-----------------------------|--------------------------|


   H          E   E  E   E       Q.      Q.     E   E         Q     E   Q    Q     S S    W                      W                   W                   W                 
-----------------------------|-------------------------|-------------------------------|--------------------||--------------------|-------------------|-------------------|
-----------------12-----12b--|---L------12-------------|-------------------------------|--------------------||--------------------|-------------------|-------------------|
--10b---------L--------------|------------------9--10--|--10g12----10--10----9----10-9-|--7~----------------||*-------------------|-------------------|-------------------|
-----------------------------|-------------------------|-------------------------------|--------------------||*-------------------|-------------------|-------------------|
-----------------------------|-------------------------|-------------------------------|--------------------||--------------------|-------------------|-------------------|
-----------------------------|-------------------------|-------------------------------|--------------------||--------------------|-------------------|-------------------|


  W                   W                   W                   W                   W                       W                     H         Q     Q        Q.       H          E   
-------------------|-------------------|-------------------|-------------------|--------------------||----------------------|------------10----12----|--10~---------------------|
-------------------|-------------------|-------------------|-------------------|--------------------||--/13~----------------|---L--------------------|-----------12~---------L--|
-------------------|-------------------|-------------------|-------------------|-------------------*||----------------------|------------------------|--------------------------|
-------------------|-------------------|-------------------|-------------------|-------------------*||----------------------|------------------------|--------------------------|
-------------------|-------------------|-------------------|-------------------|--------------------||----------------------|------------------------|--------------------------|
-------------------|-------------------|-------------------|-------------------|--------------------||----------------------|------------------------|--------------------------|


   W                     W                     H         Q     Q        Q.       H          E      W                      W                     H         Q     Q     
--------------------|----------------------|------------10----12----|--10~---------------------|---------------------|----------------------|------------10----12----|
---L----------------|--/13~----------------|---L--------------------|-----------12~------------|---------------------|--/13~----------------|---L--------------------|
--------------------|----------------------|------------------------|----------------------14--|---L~----------------|----------------------|------------------------|
--------------------|----------------------|------------------------|--------------------------|---------------------|----------------------|------------------------|
--------------------|----------------------|------------------------|--------------------------|---------------------|----------------------|------------------------|
--------------------|----------------------|------------------------|--------------------------|---------------------|----------------------|------------------------|


   Q.       H          E      W                     W                     W                     H         E  E  S  S  E       H         E  E  E   E       H         E   E  S   S E   
--10~---------------------|---------------------|---------------------|---------------------|-----------------------------|---------------------------|-----------------------------|
-----------12~---------L--|--14~----------------|--10~----------------|--12~----------------|-----------------------------|---------------------------|-----------------------------|
--------------------------|---------------------|---------------------|---------------------|--/9~--------7--9--7S-9------|----------------7--9--10b--|--10~--------9--10--9S-10-7--|
--------------------------|---------------------|---------------------|---------------------|------------------------10~--|---L--------10-------------|-----------------------------|
--------------------------|---------------------|---------------------|---------------------|-----------------------------|---------------------------|-----------------------------|
--------------------------|---------------------|---------------------|---------------------|-----------------------------|---------------------------|-----------------------------|


                      tr                                                                                                                                                          
  S S     E   E   E   H                 W                   W                   W                   W                   W                   W                   W                 
-----------------------------------||--------------------|-------------------|-------------------|-------------------|-------------------|-------------------|-------------------|
-------------12--13--15(17)--------||--------------------|-------------------|-------------------|-------------------|-------------------|-------------------|-------------------|
--L---10g12------------------------||*-------------------|-------------------|-------------------|-------------------|-------------------|-------------------|-------------------|
-----------------------------------||*-------------------|-------------------|-------------------|-------------------|-------------------|-------------------|-------------------|
-----------------------------------||--------------------|-------------------|-------------------|-------------------|-------------------|-------------------|-------------------|
-----------------------------------||--------------------|-------------------|-------------------|-------------------|-------------------|-------------------|-------------------|


  W                   W                   W                   W                   W                   W                   W                   W                   W                 
-------------------|-------------------|-------------------|-------------------|-------------------|-------------------|-------------------|-------------------|-------------------|
-------------------|-------------------|-------------------|-------------------|-------------------|-------------------|-------------------|-------------------|-------------------|
-------------------|-------------------|-------------------|-------------------|-------------------|-------------------|-------------------|-------------------|-------------------|
-------------------|-------------------|-------------------|-------------------|-------------------|-------------------|-------------------|-------------------|-------------------|
-------------------|-------------------|-------------------|-------------------|-------------------|-------------------|-------------------|-------------------|-------------------|
-------------------|-------------------|-------------------|-------------------|-------------------|-------------------|-------------------|-------------------|-------------------|


    W                     H         Q     Q        Q.       H          E      W                     W                     H         Q     Q        Q.       H          E   
----------------------|------------10----12----|--10~---------------------|--------------------|----------------------|------------10----12----|--10~---------------------|
--/13~----------------|---L--------------------|-----------12~---------L--|---L----------------|--/13~----------------|---L--------------------|-----------12~------------|
----------------------|------------------------|--------------------------|--------------------|----------------------|------------------------|----------------------14--|
----------------------|------------------------|--------------------------|--------------------|----------------------|------------------------|--------------------------|
----------------------|------------------------|--------------------------|--------------------|----------------------|------------------------|--------------------------|
----------------------|------------------------|--------------------------|--------------------|----------------------|------------------------|--------------------------|


   W                      W                     H         Q     Q        Q.       H          E      W                     W                     W                    W                 
---------------------|----------------------|------------10----12----|--10~---------------------|---------------------|---------------------|---------------------|-------------------|
---------------------|--/13~----------------|---L--------------------|-----------12~---------L--|--14~----------------|--10~----------------|--12~----------------|-------------------|
---L~----------------|----------------------|------------------------|--------------------------|---------------------|---------------------|---------------------|-------------------|
---------------------|----------------------|------------------------|--------------------------|---------------------|---------------------|---------------------|-------------------|
---------------------|----------------------|------------------------|--------------------------|---------------------|---------------------|---------------------|-------------------|
---------------------|----------------------|------------------------|--------------------------|---------------------|---------------------|---------------------|-------------------|


  W                     H          E  E  E  E     E   S S Q     E  E   E   E      H         E   E  E   E      E   S  S  Q      E   E   E  E       H          E   E  E   E    
-------------------|---------------------------|------------------------------|---------------------------|----------------------------------|------------------------------|
-------------------|---------------------------|--------------------------12--|---------------------------|----------------------------------|------------------12-----12b--|
-------------------|--/11~---------L--9-----9--|--L--11-9-8~----8--9--11------|--12---------L-------------|----------------------------------|--/14~---------L--------------|
-------------------|---------------------------|------------------------------|----------------12-----12--|---L--14-12-11~----11--12--14-----|------------------------------|
-------------------|---------------------------|------------------------------|---------------------------|----------------------------------|------------------------------|
-------------------|---------------------------|------------------------------|---------------------------|----------------------------------|------------------------------|


   Q.      Q.     E  E        Q    E  E  E  E  E  S S    E  S S S S S  S  S  S  S  S  S  S  S  S     E   S  S  E   E   E   E   E   E      E   S  S  E   E   E   E   E   E   
------------------------|-----------------------------|------------------------------------14-15-|--17--14----------------------------|------14------------------------15--|
---L------12------------|-----------------------------|------------------------12-14-15-17-------|---------15-----------------15--14--|--12-----15-----------------15------|
------------------7--9--|--9g11----9--9-----7-----9-7-|--6------6-7-9-11-12-14-------------------|------------14------14--------------|------------16------16--16----------|
------------------------|-----------------------------|-----7-9----------------------------------|----------------12------12----------|----------------16------------------|
------------------------|-----------------------------|------------------------------------------|------------------------------------|------------------------------------|
------------------------|-----------------------------|------------------------------------------|------------------------------------|------------------------------------|


   E   S  S  E   E   E   E   E  E       E   E   E   E   E   E   E   E      H         E   E  E   E      E   S  S  Q     E   E   E  E      W                  
-----------------------------------|-----------------------------------|--14---------L--12-----12--|---L--14-12-11----11--12--14-----|--14b----------------|
--15--12--------------------12-----|-------------------14--------------|---------------------------|---------------------------------|---------------------|
---------12-------------12---------|---------------14------14----------|---------------------------|---------------------------------|---------------------|
------------12------12-------------|-------11--14--------------11------|---------------------------|---------------------------------|---------------------|
----------------14-----------------|--/12--------------------------12--|---------------------------|---------------------------------|---------------------|
-----------------------------------|-----------------------------------|---------------------------|---------------------------------|---------------------|


   S  S  S  S  S  S  S  S  E   S  S  E   E      E  H        Q    E     W                   W                                         W                     H         Q     Q     
--------------------------------------------|-----------------------|-------------------|-------------------|-------------------|--/10~----------------|---L--------12----14----|
--------------------------------------------|-----------------------|-------------------|-------------------|-------------------|----------------------|------------------------|
-----------------11-12-13-14--14-15-16--14--|--11-------------------|-------------------|-------------------|-------------------|----------------------|------------------------|
--------11-12-14----------------------------|-----------------------|-------------------|-------------------|-------------------|----------------------|------------------------|
--12-14-------------------------------------|-----------------------|-------------------|-------------------|-------------------|----------------------|------------------------|
--------------------------------------------|-----------------------|-------------------|-------------------|-------------------|----------------------|------------------------|


   Q.       H          E      W                     W                     H         Q     Q        Q.       H          E      W                      W                  
--12~---------------------|--------------------|--/10~----------------|---L--------12----14----|--12~---------------------|---------------------|--/10~----------------|
-----------14~---------L--|---L----------------|----------------------|------------------------|-----------14~--------12--|---L~----------------|----------------------|
--------------------------|--------------------|----------------------|------------------------|--------------------------|---------------------|----------------------|
--------------------------|--------------------|----------------------|------------------------|--------------------------|---------------------|----------------------|
--------------------------|--------------------|----------------------|------------------------|--------------------------|---------------------|----------------------|
--------------------------|--------------------|----------------------|------------------------|--------------------------|---------------------|----------------------|


   H         Q     Q        Q.       H          E      W                     W                    W                                                                              
---L--------12----14----|--12~---------------------|--11~----------------|---------------------|--9~----------------|-------------------|-------------------|-------------------|
------------------------|-----------14~---------L--|---------------------|--12~----------------|--------------------|-------------------|-------------------|-------------------|
------------------------|--------------------------|---------------------|---------------------|--------------------|-------------------|-------------------|-------------------|
------------------------|--------------------------|---------------------|---------------------|--------------------|-------------------|-------------------|-------------------|
------------------------|--------------------------|---------------------|---------------------|--------------------|-------------------|-------------------|-------------------|
------------------------|--------------------------|---------------------|---------------------|--------------------|-------------------|-------------------|-------------------|


                       H         E  E  S  S E       H        E  E  E  E      H         E  E  S  S E     E    E   E   E   E   E   E   E       H          E   E   S  S  E    
-------------------|--/2~--------0--2--0S-2-----|---------------0--2--3b--|--3~--------2--3--2S-3-0--|--L~----------------------14--15--|--/14~--------12--14--12-14------|
-------------------|------------------------3~--|---L--------3------------|--------------------------|--------------14--15--17----------|----------------------------15~--|
-------------------|----------------------------|-------------------------|--------------------------|------14--16----------------------|---------------------------------|
-------------------|----------------------------|-------------------------|--------------------------|----------------------------------|---------------------------------|
-------------------|----------------------------|-------------------------|--------------------------|----------------------------------|---------------------------------|
-------------------|----------------------------|-------------------------|--------------------------|----------------------------------|---------------------------------|


  H         E   E   E   E       H          E   E   S  S  E       E   E   E   E   E  E  E   E     W                    W                    W                    W                   
---------------12--14--15b--|--15~--------14--15--14-15-12~--|---L--10--10--------------------|--------------------|--------------------|--------------------|--------------------||
--L--------15---------------|--------------------------------|--------------10--10--8--7s--8--|--7~----------------|--L~----------------|--L~----------------|--L~----------------||
----------------------------|--------------------------------|--------------------------------|--------------------|--------------------|--------------------|--------------------||
----------------------------|--------------------------------|--------------------------------|--------------------|--------------------|--------------------|--------------------||
----------------------------|--------------------------------|--------------------------------|--------------------|--------------------|--------------------|--------------------||
----------------------------|--------------------------------|--------------------------------|--------------------|--------------------|--------------------|--------------------||


www.yunanmr.co.nr

Advertisements


Chord Lainnya
J Rocks - Berharap Kau Kembali
J Rocks - Cahaya
J Rocks - Ceria
J Rocks - Ceria [bass tab]
J Rocks - Ceria [Tab]
J Rocks - Cobalah Kau Mengerti
J Rocks - Cobalah Kau Mengerti (Guitar Tab)
Lihat kumpulan Chord gitar J Rocks Lengkap disini.

Sponsors:

Pencarian
Klik di sini untuk rekomendasikan Chord kepada teman!

Klik di sini untuk rekomendasikan chord kepada teman

Kata Kunci yang sering digunakan dalam pencarian chord gitar: