Mancanegara Musik 80'an Dangdut Malaysia Reggae Lagu Religi Lagu Anak Radio Artikel

Chord gitar My Chemical Romance - Helena [Tab]

Sponsors

Chord gitar lagu / Kunci gitar lagu My Chemical Romance - Helena [Tab] - ( 523 )
Ganti Kunci Gitar :  
Intro (0:00)
  Moderately Q=126
  N.C.(C#m)
 4/4
  Gtr I
   PM----------------------------------------------
   S  S  S  S  S  S  S  S  S  S  S  S  S  S  S  S
|-------------------------------------------------|
|-------------------------------------------------|
|-------------------------------------------------|
|-14-14-14-14-14-14-14-14-14-14-14-14-14-14-14-14-|
|-------------------------------------------------|
|-------------------------------------------------|
|
| Gtr II
|  PM----------------------------------------------
|  S  S  S  S  S  S  S  S  S  S  S  S  S  S  S  S
|-------------------------------------------------|
|-------------------------------------------------|
|-------------------------------------------------|
|-------------------------------------------------|
|-------------------------------------------------|
|--9--9--9--9--9--9--9--9--9--9--9--9--9--9--9--9-|


 ----------------------------------------------|
   S  S  S  S  S  S  S  S  S  S  S  S  S  S  S  S
|-------------------------------------------------|
|-------------------------------------------------|
|-------------------------------------------------|
|-11-11-11-11-11-11-11-11-11-11-11-11-11-11-11-11-|
|-------------------------------------------------|
|-------------------------------------------------|
|
|----------------------------------------------|
|  S  S  S  S  S  S  S  S  S  S  S  S  S  S  S  S
|-------------------------------------------------|
|-------------------------------------------------|
|-------------------------------------------------|
|-------------------------------------------------|
|-------------------------------------------------|
|--9--9--9--9--9--9--9--9--9--9--9--9--9--9--9--9-|


  (Emaj7)                                           (B5)            (G#5)
   PM----------------------------------------------------------------------------------------
   S  S  S  S  S  S  S  S  S  S  S  S  S  S  S  S   S S S S S S S S  S  S  S  S  S  S  S  S
|-------------------------------------------------|-----------------------------------------|
|-------------------------------------------------|-----------------------------------------|
|-------------------------------------------------|-----------------------------------------|
|-13-13-13-13-13-13-13-13-13-13-13-13-13-13-13-13-|-9-9-9-9-9-9-9-9-11-11-11-11-13-13-13-13-|
|-------------------------------------------------|-----------------------------------------|
|-------------------------------------------------|-----------------------------------------|
|
|  PM----------------------------------------------------------------------------------------
|  S  S  S  S  S  S  S  S  S  S  S  S  S  S  S  S   S S S S S S S S  S  S  S  S  S  S  S  S
|-------------------------------------------------|-----------------------------------------|
|-------------------------------------------------|-----------------------------------------|
|-------------------------------------------------|-----------------------------------------|
|-------------------------------------------------|-----------------------------------------|
|-------------------------------------------------|-----------------------------------------|
|--0--0--0--0--0--0--0--0--0--0--0--0--0--0--0--0-|-7-7-7-7-7-7-7-7--4--4--4--4--4--4--4--4-|


  (A5)
 ----------------------------------------------|
   S  S  S  S  S  S  S  S  S  S  S  S  S  S  S  S
|----------------------------------------------------|
|----------------------------------------------------|
|----------------------------------------------------|
|-14-14-14-14-14-14-14-14-14-14-14-14-14-14-14-14----|
|----------------------------------------------------|
|----------------------------------------------------|
|
|----------------------------------------------|
|  S  S  S  S  S  S  S  S  S  S  S  S  S  S  S  S
|----------------------------------------------------|
|----------------------------------------------------|
|----------------------------------------------------|
|----------------------------------------------------|
|----------------------------------------------------|
|--5--5--5--5--5--5--5--5--5--5--5--5--5--5--5--4----|


  (A)
   PM----------------------------------------------
   S  S  S  S  S  S  S  S  S  S  S  S  S  S  S  S
|-------------------------------------------------|
|-------------------------------------------------|
|-------------------------------------------------|
|-11-11-11-11-11-11-11-11-11-11-11-11-11-11-11-11-|
|-------------------------------------------------|
|-------------------------------------------------|
|
|  PM----------------------------------------------
|  S  S  S  S  S  S  S  S  S  S  S  S  S  S  S  S
|-------------------------------------------------|
|-------------------------------------------------|
|-------------------------------------------------|
|-------------------------------------------------|
|-------------------------------------------------|
|--5--5--5--5--5--5--5--5--5--5--5--5--5--5--5--5-|


  (C#m7)                                    (B)
                                                                                Gtr III
 -------------------------------------------------------------------------------------|
  S S S S S S S S  S  S  S  S  S  S  S  S    S  S  S  S  S  S  S  S  S  S  S  S S S S S
|-----------------------------------------|------------------------------------------------||
|-----------------------------------------|------------------------------------------------||
|-----------------------------------------|------------------------------------------------||
|-9-9-9-9-9-9-9-9-11-11-11-11-11-11-11-11-|-13-13-13-13-13-13-13-13-13-13-13-13------------||
|-----------------------------------------|------------------------------------------------||
|-----------------------------------------|-------------------------------------0-0-0-0----||
|
|                                                                               Gtr IV
|-------------------------------------------------------------------------------------|
| S S S S S S S S  S  S  S  S  S  S  S  S    S  S  S  S  S  S  S  S  S  S  S  S S S S S
|-----------------------------------------|------------------------------------------------||
|-----------------------------------------|------------------------------------------------||
|-----------------------------------------|------------------------------------------------||
|-----------------------------------------|------------------------------------------------||
|-----------------------------------------|------------------------------------------------||
|-9-9-9-9-9-9-9-9--9--9--9--9--9--9--9--9-|--7--7--7--7--7--7--7--7--7--7--7--7-0-0-0-0----||


 Verses (0:15. 1:03)
  $
  C#5
  E S S S S S S E S S S S S S   E S S S S S S E S S S S S S
|-----------------------------|-----------------------------|
|-----------------------------|-----------------------------|
|-----------------------------|-----------------------------|
|-6-6-6-6-6-6-6-6-6-6-6-6-6-6-|-6-6-6-6-6-6-6-6-6-6-6-6-6-6-|
|-4-4-4-4-4-4-4-4-4-4-4-4-4-4-|-4-4-4-4-4-4-4-4-4-4-4-4-4-4-|
|-----------------------------|-----------------------------|
|
E S S S S S S E S S S S S S   E S S S S S S E S S S S S S
|-----------------------------|-----------------------------|
|-----------------------------|-----------------------------|
|-----------------------------|-----------------------------|
|-6-6-6-6-6-6-6-6-6-6-6-6-6-6-|-6-6-6-6-6-6-6-6-6-6-6-6-6-6-|
|-4-4-4-4-4-4-4-4-4-4-4-4-4-4-|-4-4-4-4-4-4-4-4-4-4-4-4-4-4-|
|-----------------------------|-----------------------------|


  (E5)          Esus2           B5          G#5
  E S S S S S S E S S S S S S   E S S S S S S E S S S S S S
|-----------------------------|-----------------------------|
|-----------------------------|-----------------------------|
|-----------------------------|-----------------------------|
|-----------------------------|-----------------------------|
|-7-7-7-7-7-7-9-9-9-9-9-9-9-9-|-9-9-9-9-9-9-6-6-6-6-6-6-6-6-|
|-0-0-0-0-0-0-0-0-0-0-0-0-0-0-|-7-7-7-7-7-7-4-4-4-4-4-4-4-4-|
|
E S S S S S S E S S S S S S   E S S S S S S E S S S S S S
|-----------------------------|-----------------------------|
|-----------------------------|-----------------------------|
|-----------------------------|-----------------------------|
|-----------------------------|-----------------------------|
|-4-4-4-4-4-4-4-4-4-4-4-4-4-4-|-6-6-6-6-6-6-6-7-7-7-7-7-7-7-|
|-0-0-0-0-0-0-0-0-0-0-0-0-0-0-|-7-7-7-7-7-7-7-4-4-4-4-4-4-4-|


  (A5)
  E S S S S S S E S S S S E
|------------------------------|
|------------------------------|
|------------------------------|
|-7-7-7-7-7-7-7-7-7-7-7-7-6----|
|-x-x-x-x-x-x-x-x-x-x-x-x-x----|
|-5-5-5-5-5-5-5-5-5-5-5-5-4----|
|
E S S S S S S E S S S S S S
|------------------------------|
|------------------------------|
|------------------------------|
|------------------------------|
|-4-4-4-4-4-4-4-4-4-4-4-4-4-4--|
|-5-5-5-5-5-5-5-5-5-5-5-5-5-5--|


  E S S S S S S E S S S S   S  S
|--------------------------------|
|--------------------------------|
|--------------------------------|
|-7-7-7-7-7-7-7-7-7-7-7-7-/11-11-|
|-x-x-x-x-x-x-x-x-x-x-x-x---x--x-|
|-5-5-5-5-5-5-5-5-5-5-5-5--/9--9-|
|
E S S S S S S E S S S S   S  S
|--------------------------------|
|--------------------------------|
|--------------------------------|
|--------------------------------|
|-6-6-6-6-6-6-6-6-6-6-6-6---6--6-|
|-5-5-5-5-5-5-5-5-5-5-5-5---5--5-|


  C#5                                  B5
   E  E    S  S  E  E  S  S  S  S  E   E S S S S E E S S S S S S
|------------------------------------|----------------------------||
|------------------------------------|----------------------------||
|------------------------------------|----------------------------||
|-11-11---11-11-11-11-11-11-11-11-11-|-9-9-9-9-9-9-9-9-9----------||
|-11-11---11-11-11-11-11-11-11-11-11-|-9-9-9-9-9-9-9-9-9----------||
|--9--9----9--9--9--9--9--9--9--9--9-|-7-7-7-7-7-7-7-7-7-0-0-0-0--||
|
|  E  S S  S  S  E  E  S  S  S  S  E   E S S S S E E S S S S S S
|------------------------------------|----------------------------||
|------------------------------------|----------------------------||
|------------------------------------|----------------------------||
|------------------------------------|----------------------------||
|--7--7-7--7--7--7--7--7--7--7--7--7-|-7-7-7-7-7-7-7-7-7----------||
|--9--9-9--9--9--9--9--9--9--9--9--9-|-7-7-7-7-7-7-7-7-7-0-0-0-0--||


 Pre-Chorus (0:31, 1:18)
  E/G#        Esus2/G#                 A5          A6
  E S S S S S  S  E  S  S  S  S  S S   E S S S S S  S  E  S  S  S  S  S S
|------------------------------------|------------------------------------|
|------------------------------------|------------------------------------|
|-9-9-9-9-9-9-11-11-11-11-11-11-11-9-|-9-9-9-9-9-9-11-11-11-11-11-11-11-9-|
|-x-x-x-x-x-x--x--x--x--x--x--x--x-x-|-x-x-x-x-x-x--x--x--x--x--x--x--x-x-|
|-7-7-7-7-7-7--9--9--9--9--9--9--9-7-|-7-7-7-7-7-7--9--9--9--9--9--9--9-7-|
|------------------------------------|------------------------------------|
|
E S S S S S  S  E  S  S  S  S  S S   E S S S S S  S  E  S  S  S  S  S S
|------------------------------------|------------------------------------|
|------------------------------------|------------------------------------|
|------------------------------------|------------------------------------|
|------------------------------------|------------------------------------|
|-7-7-7-7-7-7--9--9--9--9--9--9--9-7-|-7-7-7-7-7-7--9--9--9--9--9--9--9-9-|
|-4-4-4-4-4-4--4--4--4--4--4--4--4-5-|-5-5-5-5-5-5--5--5--5--5--5--5--5-5-|


  C#5               A/C#                   B5          B6
   E  S  S  S  S  S  S  E  S  S  S  S  E   E S S S S S  S  E  S  S  S  S  S S
|----------------------------------------|------------------------------------|
|----------------------------------------|------------------------------------|
|--9--9--9--9--9--9-11-11-11-11-11-11-11-|-8-8-8-8-8-8--9--9--9--9--9--9--9-9-|
|--x--x--x--x--x--x--x--x--x--x--x--x--x-|-x-x-x-x-x-x--x--x--x--x--x--x--x-x-|
|--7--7--7--7--7--7--9--9--9--9--9--9--9-|-6-6-6-6-6-6--7--7--7--7--7--7--7-7-|
|----------------------------------------|------------------------------------|
|
|                                                                           PM
|  E  S  S  S  S  S  S  E  S  S  S  S  E   E S S S S S  S  E  S  S  S  S  S S
|----------------------------------------|------------------------------------|
|----------------------------------------|------------------------------------|
|----------------------------------------|------------------------------------|
|----------------------------------------|------------------------------------|
|-11-11-11-11-11-11-12-12-12-12-12-12-12-|-9-9-9-9-9-9-11-11-11-11-11-11-11---|
|--9--9--9--9--9--9--9--9--9--9--9--9--9-|-7-7-7-7-7-7--7--7--7--7--7--7--7-0-|


  E/G#        Esus2/G#                 A5          A6
  E S S S S S  S  E  S  S  S  S  S S   E S S S S S  S  E  S  S  S  S  S S
|------------------------------------|------------------------------------|
|------------------------------------|------------------------------------|
|-9-9-9-9-9-9-11-11-11-11-11-11-11-9-|-9-9-9-9-9-9-11-11-11-11-11-11-11-9-|
|-x-x-x-x-x-x--x--x--x--x--x--x--x-x-|-x-x-x-x-x-x--x--x--x--x--x--x--x-x-|
|-7-7-7-7-7-7--9--9--9--9--9--9--9-7-|-7-7-7-7-7-7--9--9--9--9--9--9--9-7-|
|------------------------------------|------------------------------------|
|
E S S S S S  S  E  S  S  S  S  S S   E S S S S S  S  E  S  S  S  S  S S
|------------------------------------|------------------------------------|
|------------------------------------|------------------------------------|
|------------------------------------|------------------------------------|
|------------------------------------|------------------------------------|
|-7-7-7-7-7-7--9--9--9--9--9--9--9-7-|-7-7-7-7-7-7--9--9--9--9--9--9--9-9-|
|-4-4-4-4-4-4--4--4--4--4--4--4--4-5-|-5-5-5-5-5-5--5--5--5--5--5--5--5-5-|


  C#5               A/C#                   B5            B6
   E  S  S  S  S  S  S  E  S  S  S  S  E   E S S S S S S  E     S  S S S S S
|----------------------------------------|-----------------------------------||
|----------------------------------------|-----------------------------------||
|--9--9--9--9--9--9-11-11-11-11-11-11-11-|-8-8-8-8-8-8-9--9-----9--9-9-9-9-9-||
|--x--x--x--x--x--x--x--x--x--x--x--x--x-|-x-x-x-x-x-x-x--x-----x--x-x-x-x-x-||
|--7--7--7--7--7--7--9--9--9--9--9--9--9-|-6-6-6-6-6-6-7--7-----7--7-7-7-7-7-||
|----------------------------------------|-----------------------------------||
|
|                                                                    PM----|
|  E  S  S  S  S  S  S  E  S  S  S  S  E   E S S S S S S  S  S  S  S S S S S
|----------------------------------------|-----------------------------------||
|----------------------------------------|-----------------------------------||
|----------------------------------------|-----------------------------------||
|----------------------------------------|-----------------------------------||
|-11-11-11-11-11-11-12-12-12-12-12-12-12-|-9-9-9-9-9-9-9-11-11-11-11---------||
|--9--9--9--9--9--9--9--9--9--9--9--9--9-|-7-7-7-7-7-7-7--7--7--7--7-0-0-0-0-||


 Chorus (0:46, 1:34, 2:38)
  $$
  E5
  Gtr V
  Q  E E Q  E E   E  Q    E  E  Q.
|---------------|----------------------|
|---------------|----------------------|
|-9--9-9-9--9-9-|-9-11---11-11-13------|
|-x--x-x-x--x-x-|-x--x----x--x--x------|
|-7--7-7-7--7-7-|-7--9----9--9-11------|
|---------------|----------------------|
|
| Gtrs III, IV
| Q  E E Q  E E   E  E E  E  E  E  E E
|---------------|----------------------|
|---------------|----------------------|
|---------------|----------------------|
|---------------|----------------------|
|-2--2-2-2--2-2-|-2--2-2--2--2--2--2-2-|
|-0--0-0-0--0-0-|-0--0-0--0--0--0--0-0-|


  B5                       C+7
   Q    E  E  E  E  E  E    E  Q.        Q    Q
|------------------------|-------------------------|
|------------------------|-------------------------|
|-11---11-11-11-11-11-11-|-11-13--------16---14----|
|--x----x--x--x--x--x--x-|--x--x---------x----x----|
|--9----9--9--9--9--9--9-|--9-11--------14---12----|
|------------------------|-------------------------|
|
|  E E  E  E  E  E  E  E    E  E   E  E  E E  E E
|------------------------|-------------------------|
|------------------------|-------------------------|
|------------------------|-------------------------|
|------------------------|-------------------------|
|--9-9--9--9--9--9--9--9-|--9-12--12-12--9-9--9-9--|
|--7-7--7--7--7--7--7--7-|--8--8---9--8--8-8--8-8--|


  C#5
   Q     E  E  Q     E  E    +E   Q     E  E  Q.
|-------------------------|----------------------------|
|-------------------------|----------------------------|
|-13----13-13-13----13-14-|-(14)-13----13-13--9--------|
|--x-----x--x--x-----x--x-|--(x)--x-----x--x--x--------|
|-11----11-11-11----11-12-|-(12)-11----11-11--7--------|
|-------------------------|----------------------------|
|
|  E  E  E  E  E  E  E  E     E   E  E  E  E  E   E  E
|-------------------------|----------------------------|
|-------------------------|----------------------------|
|-------------------------|----------------------------|
|-------------------------|----------------------------|
|-11-11-11-11-11-11-11-11-|--11--11-11-11-11-11--11-11-|
|--9--9--9--9--9--9--9--9-|---9---9--9--9--9--9---9--9-|


                                             To Coda          D.S. al Coda
                                             To Coda
  C+7         Ab/C                                    E/B
                                                      Gtr I
   H           Q     Q       H           E  E  E  E   E E E E E E E   E
|-------------------------|-------------------------|------------------------||
|-------------------------|-------------------------|---9-------9------------||
|-11----------11-----9----|--8-----------4s=6--4----|-------9---------9------||
|--x-----------x-----x----|--x-----------x-----x----|-9---9---9---9----------||
|--9-----------9-----7----|--6-----------2s=4--2----|------------------------||
|-------------------------|-----------------------0-|------------------------||
|
|                                                                 PM----|
|  E  E  E  E  E  E  E  E    E  E  E  E  E  E  E  E   H       Q   S S S S
|-------------------------|-------------------------|------------------------||
|-------------------------|-------------------------|------------------------||
|-------------------------|-------------------------|------------------------||
|-------------------------|-------------------------|------------------------||
|-12-12-12-12-11-11-11-11-|-11-11-11-11-11-11-11-11-|------------------------||
|--8--8--8--8--8--8--8--8-|--8--8--8--8--8--8--8--8-|-------------0-0-0-0----||


 (1:49)
  &
  E5
  Gtr V
  Q  E E Q  E E   E  Q    E  E  Q.
|---------------|----------------------|
|---------------|----------------------|
|-9--9-9-9--9-9-|-9-11---11-11-13------|
|-x--x-x-x--x-x-|-x--x----x--x--x------|
|-7--7-7-7--7-7-|-7--9----9--9-11------|
|---------------|----------------------|
|
| Gtrs III, IV
| Q  E E Q  E E   E  E E  E  E  E  E E
|---------------|----------------------|
|---------------|----------------------|
|---------------|----------------------|
|---------------|----------------------|
|-2--2-2-2--2-2-|-2--2-2--2--2--2--2-2-|
|-0--0-0-0--0-0-|-0--0-0--0--0--0--0-0-|


  B5                       C+7
   Q    E  E  E  E  E  E    E  Q.        E  E  Q
|------------------------|--------------------------|
|------------------------|--------------------------|
|-11---11-11-11-11-11-11-|-11-13--------13s16-14----|
|--x----x--x--x--x--x--x-|--x--x---------x-----x----|
|--9----9--9--9--9--9--9-|--9-11--------11s14-12----|
|------------------------|--------------------------|
|
|  E E  E  E  E  E  E  E    E  E   E  E  E  E  E E
|------------------------|--------------------------|
|------------------------|--------------------------|
|------------------------|--------------------------|
|------------------------|--------------------------|
|--9-9--9--9--9--9--9--9-|--9-12--12-12--9--9--9-9--|
|--7-7--7--7--7--7--7--7-|--8--8---9--8--8--8--8-8--|


  C#5
   Q     E  E  E  E  E  E    E  E  E  E  E  E  Q
|-------------------------|-------------------------|
|-------------------------|-------------------------|
|-13----13-13-13-13-13-13-|-13-13-13-13-13--9--9----|
|--x-----x--x--x--x--x--x-|--x--x--x--x--x--x--x----|
|-11----11-11-11-11-11-11-|-11-11-11-11-11--7--7----|
|-------------------------|-------------------------|
|
|  E  E  E  E  E  E  E  E    E  E  E  E  E  E  E  E
|-------------------------|-------------------------|
|-------------------------|-------------------------|
|-------------------------|-------------------------|
|-------------------------|-------------------------|
|-11-11-11-11-11-11-11-11-|-11-11-11-11-11-11-11-11-|
|--9--9--9--9--9--9--9--9-|--9--9--9--9--9--9--9--9-|


  C+7               Ab/C
   E  E  E  E  Q     Q       H           H
|-------------------------|--------------------------|
|-------------------------|--------------------------|
|-11-11-11-11-11-----9----|-13----------11-----------|
|--x--x--x--x--x-----x----|--x-----------x-----------|
|--9--9--9--9--9-----7----|-11-----------9-----------|
|-------------------------|--------------------------|
|
|  E  E  E  E  E  E  E  E    E  E  E  E  E  E  E  E
|-------------------------|--------------------------|
|-------------------------|--------------------------|
|-------------------------|--------------------------|
|-------------------------|--------------------------|
|-12-12-12-12-11-11-11-11-|-11-11-11-11-11-11-11-11--|
|--8--8--8--8--8--8--8--8-|--8--8--8--8--8--8--8--8--|


                          Bridge (2:08)
  E5                       N.C.(C#m)
                           Gtr II
  W          +W            S S S S S S S S S S S S S S S S
|----------|------------||---------------------------------|
|----------|------------||---------------------------------|
|-9--------|-(9)--------||-9-9-9-9-9-9-9-9-9-9-9-9-9-9-9-9-|
|-x--------|------------||-x-x-x-x-x-x-x-x-x-x-x-x-x-x-x-x-|
|-7--------|-(7)--------||-7-7-7-7-7-7-7-7-7-7-7-7-7-7-7-7-|
|----------|------------||---------------------------------|
|
|                          Gtr I
|                          PM----------------------------|
| W          +W            S S S S S S S S S S S S S S S S
|----------|------------||---------------------------------|
|----------|------------||---------------------------------|
|----------|------------||---------------------------------|
|----------|------------||---------------------------------|
|-2--------|-(2)--------||---------------------------------|
|-0--------|-(0)--------||-9-9-9-9-9-9-9-9-9-9-9-9-9-9-9-9-|


  (A)             (A5)    (A6)          (E/B)
  S S S S S S S S S S S S  S  S  S  S    S  S  S  S  S  S  S  S  S  S  S  S  S  S  S  S
|-------------------------------------|-------------------------------------------------|
|-------------------------------------|-------------------------------------------------|
|-8-8-8-8-8-8-8-8-9-9-9-9-11-11-11-11-|-13-13-13-13-13-13-13-13-13-13-13-13-13-13-13-13-|
|-x-x-x-x-x-x-x-x-x-x-x-x--x--x--x--x-|--x--x--x--x--x--x--x--x--x--x--x--x--x--x--x--x-|
|-6-6-6-6-6-6-6-6-7-7-7-7--9--9--9--9-|-11-11-11-11-11-11-11-11-11-11-11-11-11-11-11-11-|
|-------------------------------------|-------------------------------------------------|
|
| PM-------------------------------------------------------------------------------------
| S S S S S S S S S S S S  S  S  S  S    S  S  S  S  S  S  S  S  S  S  S  S  S  S  S  S
|-------------------------------------|-------------------------------------------------|
|-------------------------------------|-------------------------------------------------|
|-------------------------------------|-------------------------------------------------|
|-------------------------------------|-------------------------------------------------|
|-------------------------------------|-------------------------------------------------|
|-5-5-5-5-5-5-5-5-5-5-5-5--5--5--5--5-|--7--7--7--7--7--7--7--7--7--7--7--7--7--7--7--7-|


  (B5)
   S  S  S  S  S  S  S  S  S  S  S  S  S  S  S  S
|----------------------------------------------------|
|----------------------------------------------------|
|-11-11-11-11-11-11-11-11-11-11-11-11-11-11-11-11----|
|--x--x--x--x--x--x--x--x--x--x--x--x--x--x--x--x----|
|--9--9--9--9--9--9--9--9--9--9--9--9--9--9--9--9----|
|----------------------------------------------------|
|
|----------------------------------------------|
|  S  S  S  S  S  S  S  S  S  S  S  S  S  S  S  S
|----------------------------------------------------|
|----------------------------------------------------|
|----------------------------------------------------|
|----------------------------------------------------|
|----------------------------------------------------|
|--7--7--7--7--7--7--7--7--7--7--7--7--7--7--7--7----|


  (C#m)                             (A)             (A5)    (A6)
  S S S S S S S S S S S S S S S S   S S S S S S S S S S S S  S  S  S  S
|---------------------------------|-------------------------------------|
|---------------------------------|-------------------------------------|
|-9-9-9-9-9-9-9-9-9-9-9-9-9-9-9-9-|-8-8-8-8-8-8-8-8-9-9-9-9-11-11-11-11-|
|-x-x-x-x-x-x-x-x-x-x-x-x-x-x-x-x-|-x-x-x-x-x-x-x-x-x-x-x-x--x--x--x--x-|
|-7-7-7-7-7-7-7-7-7-7-7-7-7-7-7-7-|-6-6-6-6-6-6-6-6-7-7-7-7--9--9--9--9-|
|---------------------------------|-------------------------------------|
|
| PM---------------------------------------------------------------------
| S S S S S S S S S S S S S S S S   S S S S S S S S S S S S  S  S  S  S
|---------------------------------|-------------------------------------|
|---------------------------------|-------------------------------------|
|---------------------------------|-------------------------------------|
|---------------------------------|-------------------------------------|
|---------------------------------|-------------------------------------|
|-9-9-9-9-9-9-9-9-9-9-9-9-9-9-9-9-|-5-5-5-5-5-5-5-5-5-5-5-5--5--5--5--5-|


  (E/B)
   S  S  S  S  S  S  S  S  S  S  S  S  S  S  S  S
|----------------------------------------------------|
|----------------------------------------------------|
|-13-13-13-13-13-13-13-13-13-13-13-13-13-13-13-13----|
|--x--x--x--x--x--x--x--x--x--x--x--x--x--x--x--x----|
|-11-11-11-11-11-11-11-11-11-11-11-11-11-11-11-11----|
|----------------------------------------------------|
|
|----------------------------------------------|
|  S  S  S  S  S  S  S  S  S  S  S  S  S  S  S  S
|----------------------------------------------------|
|----------------------------------------------------|
|----------------------------------------------------|
|----------------------------------------------------|
|----------------------------------------------------|
|--7--7--7--7--7--7--7--7--7--7--7--7--7--7--7--7----|


  (B)                                               (C#m7)
   S  S  S  S  S  S  S  S  S  S  S  S  S  S  S  S    S  S  S  S  S  S  S  S  S  S  S  S  S  S  S  S
|-------------------------------------------------|-------------------------------------------------|
|-------------------------------------------------|-------------------------------------------------|
|-11-11-11-11-11-11-11-11-13-13-13-13-14-14-14-14-|-16-16-16-16-16-16-16-16-16-16-16-16-16-16-16-16-|
|--x--x--x--x--x--x--x--x--x--x--x--x--x--x--x--x-|--x--x--x--x--x--x--x--x--x--x--x--x--x--x--x--x-|
|--9--9--9--9--9--9--9--9-11-11-11-11-12-12-12-12-|-14-14-14-14-14-14-14-14-14-14-14-14-14-14-14-14-|
|-------------------------------------------------|-------------------------------------------------|
|
|  PM------------------------------------------------------------------------------------------------
|  S  S  S  S  S  S  S  S  S  S  S  S  S  S  S  S    S  S  S  S  S  S  S  S  S  S  S  S  S  S  S  S
|-------------------------------------------------|-------------------------------------------------|
|-------------------------------------------------|-------------------------------------------------|
|-------------------------------------------------|-------------------------------------------------|
|-------------------------------------------------|-------------------------------------------------|
|-------------------------------------------------|-------------------------------------------------|
|--7--7--7--7--7--7--7--7--7--7--7--7--7--7--7--7-|--9--9--9--9--9--9--9--9--9--9--9--9--9--9--9--9-|


  (A)
   S  S  S  S  S  S  S  S  S  S  S  S  S  S  S  S
|----------------------------------------------------|
|----------------------------------------------------|
|-14-14-14-14-14-14-14-14-13-13-13-13-13-13-13-13----|
|--x--x--x--x--x--x--x--x--x--x--x--x--x--x--x--x----|
|-12-12-12-12-12-12-12-12-11-11-11-11-11-11-11-11----|
|----------------------------------------------------|
|
|----------------------------------------------|
|  S  S  S  S  S  S  S  S  S  S  S  S  S  S  S  S
|----------------------------------------------------|
|----------------------------------------------------|
|----------------------------------------------------|
|----------------------------------------------------|
|----------------------------------------------------|
|--5--5--5--5--5--5--5--5--5--5--5--5--5--5--5--5----|


  (Esus2/B)
   S  S  S  S  S  S  S  S  S  S  S  S S S S S
|---------------------------------------------|
|---------------------------------------------|
|-11-11-11-11-11-11-11-11-11-11-11-11-9-9-9-9-|
|--x--x--x--x--x--x--x--x--x--x--x--x-x-x-x-x-|
|--9--9--9--9--9--9--9--9--9--9--9--9-7-7-7-7-|
|---------------------------------------------|
|
|  PM------------------------------------------
|  S  S  S  S  S  S  S  S  S  S  S  S S S S S
|---------------------------------------------|
|---------------------------------------------|
|---------------------------------------------|
|---------------------------------------------|
|---------------------------------------------|
|--7--7--7--7--7--7--7--7--7--7--7--7-7-7-7-7-|


  (B6)                    (B5)                      (C#m)
   S  S  S  S  S  S  S  S  S  S  S  S  S  S  S  S   S S S S S S S S S S S S S S S S
|-------------------------------------------------|------------------------------------|
|-------------------------------------------------|------------------------------------|
|-13-13-13-13-13-13-13-13-11-11-11-11-11-11-11-11-|-9-9-9-9-9-9-9-9-9-9-9-9-9-9-9-9----|
|--x--x--x--x--x--x--x--x--x--x--x--x--x--x--x--x-|-x-x-x-x-x-x-x-x-x-x-x-x-x-x-x-x----|
|-11-11-11-11-11-11-11-11--9--9--9--9--9--9--9--9-|-7-7-7-7-7-7-7-7-7-7-7-7-7-7-7-7----|
|-------------------------------------------------|------------------------------------|
|
|---------------------------------------------------------------------------------|
|  S  S  S  S  S  S  S  S  S  S  S  S  S  S  S  S   S S S S S S S S S S S S S S S S
|-------------------------------------------------|------------------------------------|
|-------------------------------------------------|------------------------------------|
|-------------------------------------------------|------------------------------------|
|-------------------------------------------------|------------------------------------|
|-------------------------------------------------|------------------------------------|
|--7--7--7--7--7--7--7--7--7--7--7--7--7--7--7--7-|-9-9-9-9-9-9-9-9-9-9-9-9-9-9-9-9----|


  (A5)                              E5/B
  S S S S S S S S S S S S S S S S    S  S  S  S  S  S  S  S  S  S  S  S S S S S
|---------------------------------|---------------------------------------------|
|---------------------------------|---------------------------------------------|
|-8-8-8-8-8-8-8-8-9-9-9-9-9-9-9-9-|-11-11-11-11-11-11-11-11-11-11-11-11-9-9-9-9-|
|-x-x-x-x-x-x-x-x-x-x-x-x-x-x-x-x-|--x--x--x--x--x--x--x--x--x--x--x--x-x-x-x-x-|
|-6-6-6-6-6-6-6-6-7-7-7-7-7-7-7-7-|--9--9--9--9--9--9--9--9--9--9--9--9-7-7-7-7-|
|---------------------------------|---------------------------------------------|
|
| Gtrs III, IV
|                                    PM------------------------------------------
| W                 &n
Transpose Chord :  

Baca Juga :

Chord Kunci gitar SELAMAT DATANG SHEILA ON 7
Chord gitar Tak Selalu Souljah
Chord gitar Welcome To Black Parade [Tab] My Chemical Romance
Tujuh Kunci gitar sering dimainkan Pekan ini 24 Januari 2020


Mari support para artis dengan streaming lagu mereka melalui gerai digital dan membeli produk mereka berupa kaset/CD dan lainnya.


Klik di sini untuk rekomendasikan Chord kepada teman!

Sponsors:


Chord Lainnya
My Chemical Romance - Astro Zombies
My Chemical Romance - Ghost Of You
My Chemical Romance - Helena
My Chemical Romance - Helena
My Chemical Romance - Helena [Bass Tab]
My Chemical Romance - Helena [Tab]
MY CHEMICAL ROMANCE - I DONT LOVE YOU
Lihat kumpulan Chord gitar My Chemical Romance Lengkap disini.

Next Chord : My Chemical Romance - Helena [Tab]

Kata Kunci yang sering digunakan dalam pencarian chord gitar: