Mancanegara Musik 80'an Dangdut Malaysia Lagu Religi Lagu Anak Acara TV Radio Artikel

Chord gitar Superman Is Dead - Bukan Pahlawan (tab)

Advertisements

Chord gitar lagu / Kunci gitar lagu Superman Is Dead - Bukan Pahlawan (tab) - ( 2588 )
sUpeRmaN IS dEaD - bUkaN paHLawAn

iNTrO:
D5   A#5    F5  C5
ahaa..ahaa..a~.. aa

D5     A#5  F5  C5
aahaa^ aahaa ..aaaa


|-------------------------------------------------------------|
|-----------6~6---8-6-8/10~(10)~--10-8-10-8~~~----------------|
|--/7-7-5-7---------------------------------------------------|
|-------------------------------------------------------------|
|-------------------------------------------------------------|
|-------------------------------------------------------------|

|---------------------------------|
|---------------6~~~~-----6~~~----|
|-----5-7-7-5-7-------7-5---------|
|--/7-----------------------------|
|---------------------------------|
|---------------------------------|

|------------------------------------------------------------|
|-----------6~6--8-6-8/10~(10)~--10-8-10-8~~~----------------|
|--/7-7-5-7--------------------------------------------------|
|------------------------------------------------------------|
|------------------------------------------------------------|
|------------------------------------------------------------|

|---------------------------------|
|---------6~~-------6~~---8-6~~~--|
|-----5-7----7-5-7----------------|
|--/7-----------------------------|
|---------------------------------|
|---------------------------------|

VERSE:
     D5       A#5   F5        C5
Di sudut kota ini melangkah sepi
     D5     A#5 F5
Dihantui mimpi abadi
       D5     A#5      F5        C5
tangis dan air mata di pinggir jalan 
     D5     A#5     F5
kapankah ini kan berakhir??

BRIDGE:
D5   A#5    F5  C5
ahaa..ahaa..a~.. aa

VERsE2:
    D5       A#5       F5     C5
Pemabuk diperlukan p`lacur jalanan
      D5      A#5  F5
Bermahkotakan duri tajam
      D5      A#5     F5      C5
tutup matamu kawan besarkan hati
      D5         A#5    F5
surga dan... neraka menanti

CHoRus:
    A#5       F5       C5      F5  
aku bukan pahlawan berparas tampan
      D5      F5      C5
sayap sayap pupus terbakar!!
      A#5       F5       C5     F5
salah benar semua pernah kulakukan 
       A#5     C5       F5
angkat gelas kita bersulaang!!!!!!!

iNTERLudE:
D5   A#5    F5  C5
ahaa..ahaa..a~.. aa

D5     A#5  F5  C5
aahaa^ aahaa ..aaaa

SoLo:
|-------------------------------------------------------------|
|-----------6~6---8-6-8/10~(10)~--10-8-10-8~~~----------------|
|--/7-7-5-7---------------------------------------------------|
|-------------------------------------------------------------|
|-------------------------------------------------------------|
|-------------------------------------------------------------|

|---------------------------------|
|---------------6~~~~-----6~~~----|
|-----5-7-7-5-7-------7-5---------|
|--/7-----------------------------|
|---------------------------------|
|---------------------------------|

|------------------------------------------------------------|
|-----------6~6--8-6-8/10~(10)~--10-8-10-8~~~----------------|
|--/7-7-5-7--------------------------------------------------|
|------------------------------------------------------------|
|------------------------------------------------------------|
|------------------------------------------------------------|


|----------13~---------13~--15-13~~-|
|----13h15----15-13-15--------------|
|--14-------------------------------|
|-----------------------------------|
|-----------------------------------|
|-----------------------------------|

CHoRus:
    A#5       F5       C5      F5  
aku bukan pahlawan berparas tampan
      D5      F5      C5
sayap sayap pupus terbakar!!
      A#5       F5       C5     F5
salah benar semua pernah kulakukan 
       A#5     C5       F5
angkat gelas kita bersulaang!!!!!!!


VeRSe3: (no guitar)
pertarungan abadi setan malaikat

luluh lantah darah mewangi

berhamburan sejuta nafas terakhir 

dunia,,, berhenti tertawa~~


CHoRus:(drum)

aku bukan pahlawan berparas tampan
    
sayap sayap pupus terbakar!!
    
salah benar semua pernah kulakukan 
      
angkat gelas kita bersulaang!!!!!!!

CHoRus:
    A#5       F5       C5      F5  
aku bukan pahlawan berparas tampan
      D5      F5      C5
sayap sayap pupus terbakar!!
      A#5       F5       C5     F5
salah benar semua pernah kulakukan 
       A#5     C5       F5
angkat gelas kita bersulaang!!!!!!!

CoDa:
       A#5     C5       F5
angkat gelas kita bersulang
      A#5      c5       F5
walau kalah jangan menyeraah......
      A#5~~         C5~~~~~~
angat gelas,,,,,, kitaaa,,,,,,a,, 
         F~~~~~~~~~~~~~~~~~~~~~~~~~~
ber--su-laaaaaang.......................




by f3br1sevnfoldsupersynystergatescool182
email at [email protected]


Advertisements


Chord Lainnya
Superman Is Dead - Aku Persepsi
Superman Is Dead - Aku Persepsi
Superman Is Dead - All Angels Cry
Superman Is Dead (SID) - Batas Cahaya
Superman Is Dead - Blackmarket Love
Superman Is Dead - Bukan pahlawan
Superman Is Dead - Bukan Pahlawan (tab)
Lihat kumpulan Chord gitar Superman Is Dead Lengkap disini.

Sponsors:

Pencarian
Klik di sini untuk rekomendasikan Chord kepada teman!

Next Chord : Superman Is Dead - Aku Persepsi

Kata Kunci yang sering digunakan dalam pencarian chord gitar: