Mancanegara Musik 80'an Dangdut Malaysia Reggae Lagu Religi Lagu Anak Radio Artikel

Chord gitar The Changcuters - Racun Dunia [Full Tabs]

Sponsors

Chord gitar lagu / Kunci gitar lagu The Changcuters - Racun Dunia [Full Tabs] - ( 720 )
Ganti Kunci Gitar :  
The Changcuters
Racun Dunia

guitar 1                              
                         
E||--------------------------------|-------|-------|-------|
B||--------------------------------|-------|-------|-------|
G||--------------------------------|-------|-------|-------|
D||--------------------------------|-------|-------|-------|
A||--------------------------------|-------|-------|-------|
E||--------------------------------|-------|-------|-------|


  ^  ^  ^  ^  ^  ^  ^  ^     ^  ^  ^  ^  ^  ^  ^  ^   
  E  E  E  E  E  E  E  E     E  E  E  E  E  E  E  E   
--2--2--2--2--2--2--2--2--|--2--2--2--2--2--2--2--2--|
--3--3--3--3--3--3--3--3--|--3--3--3--3--3--3--3--3--|
--2--2--2--2--2--2--2--2--|--2--2--2--2--2--2--2--2--|
--0--0--0--0--0--0--0--0--|--0--0--0--0--0--0--0--0--|
--------------------------|--------------------------|
--------------------------|--------------------------|


  ^  ^  ^  ^  ^  ^  ^  ^     ^  ^  ^  ^  ^  ^  ^  ^   
  E  E  E  E  E  E  E  E     E  E  E  E  E  E  E  E   
--2--2--2--2--2--2--2--2--|--2--2--2--2--2--2--2--2--|
--3--3--3--3--3--3--3--3--|--3--3--3--3--3--3--3--3--|
--2--2--2--2--2--2--2--2--|--2--2--2--2--2--2--2--2--|
--0--0--0--0--0--0--0--0--|--0--0--0--0--0--0--0--0--|
--------------------------|--------------------------|
--------------------------|--------------------------|


  ^  ^  ^  ^  ^  ^  ^  ^     ^  ^  ^  ^  ^  ^  ^  ^   
  E  E  E  E  E  E  E  E     E  E  E  E  E  E  E  E   
--2--2--2--2--2--2--2--2--|--2--2--2--2--2--2--2--2--|
--3--3--3--3--3--3--3--3--|--3--3--3--3--3--3--3--3--|
--2--2--2--2--2--2--2--2--|--2--2--2--2--2--2--2--2--|
--0--0--0--0--0--0--0--0--|--0--0--0--0--0--0--0--0--|
--------------------------|--------------------------|
--------------------------|--------------------------|


  ^  ^  ^  ^  ^  ^  ^  ^                                              
  E  E  E  E  E  E  E  E     Q    H.              Q    Q.     Q.      
--2--2--2--2--2--2--2--2--|--2-----------------|-------5------5------|
--3--3--3--3--3--3--3--3--|--3-----------------|-------7------7------|
--2--2--2--2--2--2--2--2--|--2-----------------|-------7------7------|
--0--0--0--0--0--0--0--0--|--------------------|---------------------|
--------------------------|--------------------|---------------------|
--------------------------|--------------------|---------------------|


  Q    Q.     Q.        Q    Q.     Q.        Q    Q.     Q.      
-------7------7------|-------5------5------|-------7------7------|
-------8------8------|-------7------7------|-------8------8------|
-------7------7------|-------7------7------|-------7------7------|
---------------------|---------------------|---------------------|
---------------------|---------------------|---------------------|
---------------------|---------------------|---------------------|


  Q    Q.     Q.        Q    Q.     Q.        E  E  E  E  E  E  E  E   
-------5------5------|-------7------7------|--7--7--7--7--7--7--7--7--|
-------7------7------|-------8------8------|--8--8--8--8--8--8--8--8--|
-------7------7------|-------7------7------|--7--7--7--7--7--7--7--7--|
---------------------|---------------------|--------------------------|
---------------------|---------------------|--------------------------|
---------------------|---------------------|--------------------------|


   E   E   E   E   E   E   E   E      Q    H.              Q    Q.     Q.      
---9---9---9---9---9---9---9---9--|---9-----------------|-------5------5------|
--10--10--10--10--10--10--10--10--|--10-----------------|-------7------7------|
---9---9---9---9---9---9---9---9--|---9-----------------|-------7------7------|
----------------------------------|---------------------|---------------------|
----------------------------------|---------------------|---------------------|
----------------------------------|---------------------|---------------------|


  Q    Q.     Q.        Q    Q.     Q.        Q    Q.     Q.      
-------7------7------|-------5------5------|-------7------7------|
-------8------8------|-------7------7------|-------8------8------|
-------7------7------|-------7------7------|-------7------7------|
---------------------|---------------------|---------------------|
---------------------|---------------------|---------------------|
---------------------|---------------------|---------------------|


  Q    Q.     Q.        Q    Q.     Q.        E  E  E  E  E  E  E  E   
-------5------5------|-------7------7------|--7--7--7--7--7--7--7--7--|
-------7------7------|-------8------8------|--8--8--8--8--8--8--8--8--|
-------7------7------|-------7------7------|--7--7--7--7--7--7--7--7--|
---------------------|---------------------|--------------------------|
---------------------|---------------------|--------------------------|
---------------------|---------------------|--------------------------|


   E   E   E   E   E   E   E   E     E  E  E  E  E  E  E  E   
---9---9---9---9---9---9---9---9--|--5--5--5--5--5--5--5--5--|
--10--10--10--10--10--10--10--10--|--7--7--7--7--7--7--7--7--|
---9---9---9---9---9---9---9---9--|--7--7--7--7--7--7--7--7--|
----------------------------------|--------------------------|
----------------------------------|--------------------------|
----------------------------------|--------------------------|


  Q    H.              Q    Q.     Q.        Q    Q.     Q.      
--5-----------------|-------5------5------|-------7------7------|
--7-----------------|-------7------7------|-------8------8------|
--7-----------------|-------7------7------|-------7------7------|
--------------------|---------------------|---------------------|
--------------------|---------------------|---------------------|
--------------------|---------------------|---------------------|


  Q    Q.     Q.        Q    Q.     Q.        Q    Q.     Q.      
-------5------5------|-------7------7------|-------5------5------|
-------7------7------|-------8------8------|-------7------7------|
-------7------7------|-------7------7------|-------7------7------|
---------------------|---------------------|---------------------|
---------------------|---------------------|---------------------|
---------------------|---------------------|---------------------|


  Q    Q.     Q.        E  E  E  E  E  E  E  E   
-------7------7------|--7--7--7--7--7--7--7--7--|
-------8------8------|--8--8--8--8--8--8--8--8--|
-------7------7------|--7--7--7--7--7--7--7--7--|
---------------------|--------------------------|
---------------------|--------------------------|
---------------------|--------------------------|


   E   E   E   E   E   E   E   E     E  E  E  E  E  E  E  E   
---9---9---9---9---9---9---9---9--|--7--7--7--7--7--7--7--7--|
--10--10--10--10--10--10--10--10--|--8--8--8--8--8--8--8--8--|
---9---9---9---9---9---9---9---9--|--7--7--7--7--7--7--7--7--|
----------------------------------|--------------------------|
----------------------------------|--------------------------|
----------------------------------|--------------------------|


   E   E   E   E   E   E   E   E     E  E  E  E  E  E  E  E   
---9---9---9---9---9---9---9---9--|--5--5--5--5--5--5--5--5--|
--10--10--10--10--10--10--10--10--|--7--7--7--7--7--7--7--7--|
---9---9---9---9---9---9---9---9--|--7--7--7--7--7--7--7--7--|
----------------------------------|--------------------------|
----------------------------------|--------------------------|
----------------------------------|--------------------------|


  Q    H.              E  E  E  E  E  E  E  E     E  E  E  E  E  E  E  E   
--5-----------------|--7--7--7--7--7--7--7--7--|--7--7--7--7--7--7--7--7--|
--7-----------------|--8--8--8--8--8--8--8--8--|--8--8--8--8--8--8--8--8--|
--7-----------------|--7--7--7--7--7--7--7--7--|--7--7--7--7--7--7--7--7--|
--------------------|--------------------------|--------------------------|
--------------------|--------------------------|--------------------------|
--------------------|--------------------------|--------------------------|


  E  E  E  E  E  E  E  E     E  E  E  E  E  E  E  E   
--5--5--5--5--5--5--5--5--|--5--5--5--5--5--5--5--5--|
--7--7--7--7--7--7--7--7--|--7--7--7--7--7--7--7--7--|
--7--7--7--7--7--7--7--7--|--7--7--7--7--7--7--7--7--|
--------------------------|--------------------------|
--------------------------|--------------------------|
--------------------------|--------------------------|


  E  E  E  E  E  E  E  E     E  E  E  E  E  E  E  E   
--7--7--7--7--7--7--7--7--|--7--7--7--7--7--7--7--7--|
--8--8--8--8--8--8--8--8--|--8--8--8--8--8--8--8--8--|
--7--7--7--7--7--7--7--7--|--7--7--7--7--7--7--7--7--|
--------------------------|--------------------------|
--------------------------|--------------------------|
--------------------------|--------------------------|


   E   E   E   E   E   E   E   E      E   E   E   E   E   E   E   E   
---9---9---9---9---9---9---9---9--|---9---9---9---9---9---9---9---9--|
--10--10--10--10--10--10--10--10--|--10--10--10--10--10--10--10--10--|
---9---9---9---9---9---9---9---9--|---9---9---9---9---9---9---9---9--|
----------------------------------|----------------------------------|
----------------------------------|----------------------------------|
----------------------------------|----------------------------------|


  Q    Q.     Q.        Q    Q.     Q.        Q    Q.     Q.      
-------5------5------|-------7------7------|-------5------5------|
-------7------7------|-------8------8------|-------7------7------|
-------7------7------|-------7------7------|-------7------7------|
---------------------|---------------------|---------------------|
---------------------|---------------------|---------------------|
---------------------|---------------------|---------------------|


  Q    Q.     Q.        Q    Q.     Q.        Q    Q.     Q.      
-------7------7------|-------5------5------|-------7------7------|
-------8------8------|-------7------7------|-------8------8------|
-------7------7------|-------7------7------|-------7------7------|
---------------------|---------------------|---------------------|
---------------------|---------------------|---------------------|
---------------------|---------------------|---------------------|


  E  E  E  E  E  E  E  E      E   E   E   E   E   E   E   E   
--7--7--7--7--7--7--7--7--|---9---9---9---9---9---9---9---9--|
--8--8--8--8--8--8--8--8--|--10--10--10--10--10--10--10--10--|
--7--7--7--7--7--7--7--7--|---9---9---9---9---9---9---9---9--|
--------------------------|----------------------------------|
--------------------------|----------------------------------|
--------------------------|----------------------------------|


  E  E  E  E  E  E  E  E      E   E   E   E   E   E   E   E   
--7--7--7--7--7--7--7--7--|---9---9---9---9---9---9---9---9--|
--8--8--8--8--8--8--8--8--|--10--10--10--10--10--10--10--10--|
--7--7--7--7--7--7--7--7--|---9---9---9---9---9---9---9---9--|
--------------------------|----------------------------------|
--------------------------|----------------------------------|
--------------------------|----------------------------------|


  E  E  E  E  E  E  E  E      E   E   E   E   E   E   E   E   
--7--7--7--7--7--7--7--7--|---9---9---9---9---9---9---9---9--|
--8--8--8--8--8--8--8--8--|--10--10--10--10--10--10--10--10--|
--7--7--7--7--7--7--7--7--|---9---9---9---9---9---9---9---9--|
--------------------------|----------------------------------|
--------------------------|----------------------------------|
--------------------------|----------------------------------|


  E  E  E  E  E  E  E  E     Q    H.               Q.      Q     E  E  E   
--5--5--5--5--5--5--5--5--|--5-----------------|--------------------------|
--7--7--7--7--7--7--7--7--|--7-----------------|----------10--------------|
--7--7--7--7--7--7--7--7--|--7-----------------|--11------------11--9--7--|
--------------------------|--------------------|--------------------------|
--------------------------|--------------------|--------------------------|
--------------------------|--------------------|--------------------------|


  E  Q    Q    E  E  E      Q.      Q     E  E  E   
------------------------|--------------------------|
------------------------|----------10--------------|
--9--7------------7--9--|--11------------11--9--7--|
----------9----7--------|--------------------------|
------------------------|--------------------------|
------------------------|--------------------------|


   E.   E.   E   E.   E.  E      E   E   E   E   E   E   E   E   
-----------------------------|----------------------------------|
--12---10-------10-----------|--12--10------12--10------12--10--|
------------11-------11---9--|----------11----------11----------|
-----------------------------|----------------------------------|
-----------------------------|----------------------------------|
-----------------------------|----------------------------------|


   E   E   E   E   E   E  E  E     E  E  E   E  E  E  E  E   
--------------------------------|---------------------------|
------12--10------10------------|---------------------------|
--11----------11------11--9--7--|-----7--9--11--9--7--9--7--|
--------------------------------|--9------------------------|
--------------------------------|---------------------------|
--------------------------------|---------------------------|


                                ^  ^  ^  ^    ^         ^  ^  ^  ^    ^       
   E.   E.   E   E.   E.  E     E  E  E  Q    Q.        E  E  E  Q    Q.      
-----------------------------|-----------------------|--5--5--5--7----5------|
--12---10-------10-----------|--3--3--3--5----3------|--5--5--5--7----5------|
------------11-------11---9--|--4--4--4--4----4------|--6--6--6--6----6------|
-----------------------------|--5--5--5--5----5------|--7--7--7--7----7------|
-----------------------------|-----------------------|-----------------------|
-----------------------------|-----------------------|-----------------------|


  E  E  E  E  E  E  E  E     E   E.   E.   Q     Q     
--5--5--5--5--5--5--5--5--|--5--13---12---10----------|
--7--7--7--7--7--7--7--7--|--7------------------12----|
--7--7--7--7--7--7--7--7--|--7------------------------|
--------------------------|---------------------------|
--------------------------|---------------------------|
--------------------------|---------------------------|


  E  E  E  E  E  E  E  E     E  E  E  E  E  E  E  E   
--7--7--7--7--7--7--7--7--|--7--7--7--7--7--7--7--7--|
--8--8--8--8--8--8--8--8--|--8--8--8--8--8--8--8--8--|
--7--7--7--7--7--7--7--7--|--7--7--7--7--7--7--7--7--|
--------------------------|--------------------------|
--------------------------|--------------------------|
--------------------------|--------------------------|


  E  E  E  E  E  E  E  E     E  E  E  E  E  E  E  E   
--5--5--5--5--5--5--5--5--|--5--5--5--5--5--5--5--5--|
--7--7--7--7--7--7--7--7--|--7--7--7--7--7--7--7--7--|
--7--7--7--7--7--7--7--7--|--7--7--7--7--7--7--7--7--|
--------------------------|--------------------------|
--------------------------|--------------------------|
--------------------------|--------------------------|


  E  E  E  E  E  E  E  E     E  E  E  E  E  E  E  E   
--7--7--7--7--7--7--7--7--|--7--7--7--7--7--7--7--7--|
--8--8--8--8--8--8--8--8--|--8--8--8--8--8--8--8--8--|
--7--7--7--7--7--7--7--7--|--7--7--7--7--7--7--7--7--|
--------------------------|--------------------------|
--------------------------|--------------------------|
--------------------------|--------------------------|


   E   E   E   E   E   E   E   E      E   E   E   E   E.   E.  E   
---9---9---9---9---9---9---9---9--|---9---9---9---9---9----9---8--|
--10--10--10--10--10--10--10--10--|--10--10--10--10--10---10---9--|
---9---9---9---9---9---9---9---9--|---9---9---9---9---9----9---8--|
----------------------------------|-------------------------------|
----------------------------------|-------------------------------|
----------------------------------|-------------------------------|


  E  E  E  E  E  E  E  E     E  E  E  E  E  E  E  E   
--7--7--7--7--7--7--7--7--|--7--7--7--7--7--7--7--7--|
--8--8--8--8--8--8--8--8--|--8--8--8--8--8--8--8--8--|
--7--7--7--7--7--7--7--7--|--7--7--7--7--7--7--7--7--|
--------------------------|--------------------------|
--------------------------|--------------------------|
--------------------------|--------------------------|


  E  E  E  E  E  E  E  E     E  E  E  E  E  E  E  E   
--5--5--5--5--5--5--5--5--|--5--5--5--5--5--5--5--5--|
--7--7--7--7--7--7--7--7--|--7--7--7--7--7--7--7--7--|
--7--7--7--7--7--7--7--7--|--7--7--7--7--7--7--7--7--|
--------------------------|--------------------------|
--------------------------|--------------------------|
--------------------------|--------------------------|


  E  E  E  E  E  E  E  E     E  E  E  E  E  E  E  E   
--7--7--7--7--7--7--7--7--|--7--7--7--7--7--7--7--7--|
--8--8--8--8--8--8--8--8--|--8--8--8--8--8--8--8--8--|
--7--7--7--7--7--7--7--7--|--7--7--7--7--7--7--7--7--|
--------------------------|--------------------------|
--------------------------|--------------------------|
--------------------------|--------------------------|


   E   E   E   E   E   E   E   E      E   E   E   E   E   E   E   E   
---9---9---9---9---9---9---9---9--|---9---9---9---9---9---9---9---9--|
--10--10--10--10--10--10--10--10--|--10--10--10--10--10--10--10--10--|
---9---9---9---9---9---9---9---9--|---9---9---9---9---9---9---9---9--|
----------------------------------|----------------------------------|
----------------------------------|----------------------------------|
----------------------------------|----------------------------------|


   E   E   E   E   E   E   E   E      Q    H.              Q    Q.     Q.      
---9---9---9---9---9---9---9---9--|---9-----------------|-------5------5------|
--10--10--10--10--10--10--10--10--|--10-----------------|-------7------7------|
---9---9---9---9---9---9---9---9--|---9-----------------|-------7------7------|
----------------------------------|---------------------|---------------------|
----------------------------------|---------------------|---------------------|
----------------------------------|---------------------|---------------------|


  Q    Q.     Q.        Q    Q.     Q.        Q    Q.     Q.      
-------7------7------|-------5------5------|-------7------7------|
-------8------8------|-------7------7------|-------8------8------|
-------7------7------|-------7------7------|-------7------7------|
---------------------|---------------------|---------------------|
---------------------|---------------------|---------------------|
---------------------|---------------------|---------------------|


  Q    Q.     Q.        Q    Q.     Q.        E  E  E  E  E  E  E  E   
-------5------5------|-------7------7------|--7--7--7--7--7--7--7--7--|
-------7------7------|-------8------8------|--8--8--8--8--8--8--8--8--|
-------7------7------|-------7------7------|--7--7--7--7--7--7--7--7--|
---------------------|---------------------|--------------------------|
---------------------|---------------------|--------------------------|
---------------------|---------------------|--------------------------|


   E   E   E   E   E   E   E   E     E  E  E  E  E  E  E  E   
---9---9---9---9---9---9---9---9--|--7--7--7--7--7--7--7--7--|
--10--10--10--10--10--10--10--10--|--8--8--8--8--8--8--8--8--|
---9---9---9---9---9---9---9---9--|--7--7--7--7--7--7--7--7--|
----------------------------------|--------------------------|
----------------------------------|--------------------------|
----------------------------------|--------------------------|


   E   E   E   E   E   E   E   E     E  E  E  E  E  E  E  E   
---9---9---9---9---9---9---9---9--|--7--7--7--7--7--7--7--7--|
--10--10--10--10--10--10--10--10--|--8--8--8--8--8--8--8--8--|
---9---9---9---9---9---9---9---9--|--7--7--7--7--7--7--7--7--|
----------------------------------|--------------------------|
----------------------------------|--------------------------|
----------------------------------|--------------------------|


   E   E   E   E   E   E   E   E     E  E  E  E  E  E  E  E   
---9---9---9---9---9---9---9---9--|--7--7--7--7--7--7--7--7--|
--10--10--10--10--10--10--10--10--|--8--8--8--8--8--8--8--8--|
---9---9---9---9---9---9---9---9--|--7--7--7--7--7--7--7--7--|
----------------------------------|--------------------------|
----------------------------------|--------------------------|
----------------------------------|--------------------------|


   E   E   E   E   E   E   E   E     E  E  E  E  E  E  E  E   
---9---9---9---9---9---9---9---9--|--5--5--5--5--5--5--5--5--|
--10--10--10--10--10--10--10--10--|--7--7--7--7--7--7--7--7--|
---9---9---9---9---9---9---9---9--|--7--7--7--7--7--7--7--7--|
----------------------------------|--------------------------|
----------------------------------|--------------------------|
----------------------------------|--------------------------|


  Q    H.                                                            
--5-----------------|---------------|---------------|---------------|
--7-----------------|---------------|---------------|---------------|
--7-----------------|---------------|---------------|---------------|
--------------------|---------------|---------------|---------------|
--------------------|---------------|---------------|---------------|
--------------------|---------------|---------------|---------------|


---------------|---------------|---------------|---------------|---------------|
---------------|---------------|---------------|---------------|---------------|
---------------|---------------|---------------|---------------|---------------|
---------------|---------------|---------------|---------------|---------------|
---------------|---------------|---------------|---------------|---------------|
---------------|---------------|---------------|---------------|---------------|


  E  E  E  E  E  E  E  E     E.  E.  E  H           Q.     H        E   
--------------------------|----------------------|---------------------|
--------------------------|----------------------|---------------------|
-----------------------7--|--9---9---7-----------|--9------7--------L--|
-----------------7--9-----|-------------9--------|---------------------|
--------5--7--9-----------|----------------------|---------------------|
--5--7--------------------|----------------------|---------------------|


  E    E  E  H        E     Q.     Q.     E  E     Q.     Q.     E  E   
-------------------------|----------------------|----------------------|
-------------------------|----------------------|----------------------|
--9s--11--9--7--------L--|----------------------|----------------------|
-------------------------|--9------7---------7--|--9------7---------7--|
-------------------------|----------------9-----|----------------9-----|
-------------------------|----------------------|----------------------|


                                                TP     TP            
  Q.     Q.     E  E     Q.     Q.     E  E     Q.     Q.     E  E   
----------------------|----------------------|----------------------|
----------------------|----------------------|----------------------|
----------------------|----------------------|----------------------|
--9------7---------7--|--9------7---------7--|--9------7---------7--|
----------------9-----|----------------9-----|----------------9-----|
----------------------|----------------------|----------------------|


  TP     TP              TP     TP              TP     TP            
  Q.     Q.     E  E     Q.     Q.     E  E     Q.     Q.     E  E   
----------------------|----------------------|----------------------|
----------------------|----------------------|----------------------|
----------------------|----------------------|----------------------|
--9------7---------7--|--9------7---------7--|--9------7---------7--|
----------------9-----|----------------9-----|----------------9-----|
----------------------|----------------------|----------------------|


  TP     TP              TP     TP              TP     TP            
  Q.     Q.     E  E     Q.     Q.     E  E     Q.     Q.     E  E   
----------------------|----------------------|----------------------|
----------------------|----------------------|----------------------|
----------------------|----------------------|----------------------|
--9------7---------7--|--9------7---------7--|--9------7---------7--|
----------------9-----|----------------9-----|----------------9-----|
----------------------|----------------------|----------------------|


  TP     TP              TP     TP     TP      TP     TP     TP    
  Q.     Q.     E  E     Q.     Q.     Q       Q.     Q.     Q     
----------------------|---------------------|---------------------|
----------------------|--7------5-----------|--7------5-----------|
----------------------|----------------7----|----------------7----|
--9------7---------7--|---------------------|---------------------|
----------------9-----|---------------------|---------------------|
----------------------|---------------------|---------------------|


  TP     TP     TP      TP     TP     TP      TP     TP     TP    
  Q.     Q.     Q       Q.     Q.     Q       Q.     Q.     Q     
---------------------|---------------------|---------------------|
--7------5-----------|--7------5-----------|--7------5-----------|
----------------7----|----------------7----|----------------7----|
---------------------|---------------------|---------------------|
---------------------|---------------------|---------------------|
---------------------|---------------------|---------------------|


  TP     TP     TP      TP     TP     TP      TP     TP     TP    
  Q.     Q.     Q       Q.     Q.     Q       Q.     Q.     Q     
---------------------|---------------------|---------------------|
--7------5-----------|--7------5-----------|--7------5-----------|
----------------7----|----------------7----|----------------7----|
---------------------|---------------------|---------------------|
---------------------|---------------------|---------------------|
---------------------|---------------------|---------------------|


  E  E  E  E  E  E  E  E     E  E  E  E  E  E  E  E   
--5--5--5--5--5--5--5--5--|--7--7--7--7--7--7--7--7--|
--7--7--7--7--7--7--7--7--|--8--8--8--8--8--8--8--8--|
--7--7--7--7--7--7--7--7--|--7--7--7--7--7--7--7--7--|
--------------------------|--------------------------|
--------------------------|--------------------------|
--------------------------|--------------------------|


  E &nbs
Transpose Chord :  

Baca Juga :

Chord Kunci gitar Kunanti Arwana
Chord gitar Arti Mimpi Semalam Velvet
Chord gitar Gila The Changcuters
Siapa pencipta lagu bebek adus kali


Mari support para artis dengan streaming lagu mereka melalui gerai digital dan membeli produk mereka berupa kaset/CD dan lainnya.


Klik di sini untuk rekomendasikan Chord kepada teman!

Sponsors:


Chord Lainnya
The Changcuters - Akhirnya Indah
The Changcuters - Awas angkot ..!
The Changcuters - Awas Angkot [solo tabs]
The Changcuters - Cuaca Ekstrim
The Changcuters - Gila
The Changcuters - Gila
The Changcuters - Hap! Tangkap!
Lihat kumpulan Chord gitar The Changcuters Lengkap disini.

Klik di sini untuk rekomendasikan chord kepada teman

Kata Kunci yang sering digunakan dalam pencarian chord gitar: