Mancanegara Musik 80'an Dangdut Malaysia Lagu Religi Lagu Anak Acara TV Radio Artikel

Chord gitar Green Day - Holiday

Chord gitar lagu / Kunci gitar lagu Green Day - Holiday - ( 221 )
This is an exact version of the song in the key that Green Day plays it. If the chords

are too difficult, transpose them down 1 half step and put a capo on the first fret to

make it easier.
Intro:
Fm Db Ab Eb 6x (2 beats per chord)
Verse:
Fm Db Ab Eb

Hear the sound of the falling rain

Fm Db Ab C Fm

Coming down like an Armageddon flame (Hey!)

Db

The shame

Ab Eb C

The ones who died without a name
Fm Db Ab Eb

Hear the dogs howling out of key

Fm Db Ab C Fm

To a hymn called "Faith and Misery" (Hey!)

Db Ab Eb C

And bleed, the company lost the war today
Chorus:
Fm Db Ab Eb

I beg to dream and differ from the hollow lies

Fm Db Ab C

This is the dawning of the rest of our lives

Fm Db Ab Eb

On holiday
Fm Db Ab Eb
Verse:
Fm Db Ab Eb

Hear the drum pounding out of time

Fm Db Ab C Fm

Another pro-tes-ter has crossed the line (Hey!)
Db Ab Eb C

To find, the money's on the other side
Fm Db Ab Eb

Can I get another Amen? (Amen!)
Fm Db Ab C Fm

There's a flag wrapped around a score of men (Hey!)

Db Ab Eb C

A gag, a plastic bag on a monument
Chorus:
Fm Db Ab Eb

I beg to dream and differ from the hollow lies

Fm Db Ab C

This is the dawning of the rest of our lives

Fm Db Ab Eb

On holiday
Interlude:

|Fm Ab Db Bb Eb C |

|Fm Ab Db Bb Eb | 2x
Solo:

Db Ab C Fm Eb Db

e|---------------------------------------------8-----8-----------------------|

B|--6--6-6--8-9------------------8--5-------6-----6-----6--6-6--8-9----------|

G|---------------8--6--5--5-5-5--------5---5---------------------------------|

D|---------------------------------------------------------------------------|

A|---------------------------------------------------------------------------|

E|---------------------------------------------------------------------------|

Ab C

e|---------------------------------------------------------------------------|

B|------------------8--8--8-8-8--13--13--13-13-13---17--17--17-17-17---------|

G|--8--6--5--5-5-5-----------------------------------------------------------|

D|---------------------------------------------------------------------------|

A|---------------------------------------------------------------------------|

E|---------------------------------------------------------------------------|

Fm

e|---------------------------------------------------------------------------|

B|--17--17--17-17-17-18------------------------------------------------------|

G|---------------------------------------------------------------------------|

D|---------------------------------------------------------------------------|

A|---------------------------------------------------------------------------|

E|---------------------------------------------------------------------------|

Bass Solo:

G|---------------------------------------------------------------------------|

D|-----------------------1--------------------1-----3------------------------|

A|-----------------4--1-----3--------------------3---------------------------|

E|--1--1-3-4--4-4--------------1--1-3-4--4-4---------------------------------| 6x

(over the bass solo)
"The representative from California has the floor"
Zieg Heil to the president Gasman
Bombs away is your punishment
Pulverize the Eiffel towers
Who criticize your government
Bang bang goes the broken glass and
Kill all the fags that don't agree
Trials by fire, setting fire
Is not a way that's meant for me
C

Just cause (hey, hey, hey), just cause, because we're outlaws yeah!
Chorus:

Fm Db Ab Eb

I beg to dream and differ from the hollow lies

Fm Db Ab C

This is the dawning of the rest of our lives

Fm Db Ab Eb

I beg to dream and differ from the hollow lies

Fm Db Ab C

This is the dawning of the rest of our lives

Fm Db Ab Eb

This is our lives on holiday
Outro:

Fm Db Ab Eb 2x
Fm Db Eb C Fm Fm(octave lower)
Tabbed by Alex Heisler

Sponsors:

Chord Lainnya
Green Day - 21 guns acoustic
Green Day - 21st century breakdown
Green Day - 21st century breakdown - version 1
Green Day - 409 in your coffeemaker
Green Day - 80
Green Day - 8th avenue serenade
Green Day - 8th avenue serenade - version 1
Lihat kumpulan Chord gitar Green Day Lengkap disini.

Kata Kunci yang sering digunakan dalam pencarian chord gitar: