Mancanegara Musik 80'an Dangdut Malaysia Reggae Lagu Religi Lagu Anak Radio Artikel

Chord gitar J Rocks - Lepaskan Diriku [tab bass]

Sponsors

Chord gitar lagu / Kunci gitar lagu J Rocks - Lepaskan Diriku [tab bass] - ( 3618 )
J-rocks - Lepaskan Diriku [tab bass]
created by: zavkypunk


Intro
G|--------------------------|--------------------------|--------------------------|--------------------------|
D|--------------------------|--------------------------|--------------------------|--------------------------|
A|--------------------------|--------------------------|--3--3--3--3--3--3--3--3--|--3--3--3--3--3--3--3--3--|
E|--------------------------|-----------------3--/----|--------------------------|--------------------------|

G|--------------------------|--------------------------|--------------------------|--------------------------|
D|-10-10-10-10-10-10-10-10--|-10-10-10-10-10-10-10-10--|--------------------------|--------------------------|
A|/-------------------------|--------------------------|--7--7--7--7--7--7--7--7--|--7--7--7--7--7--7--7--7--|
E|--------------------------|--------------------------|--------------------------|--------------------------|

G|--------------------------|--------------------------|
D|--------------------------|--------------------------|
A|-10-10-10-10-10-10-10-10--|-10-10-10-10-10----10-----|
E|--------------------------|----------------10----10-|


Verse 1
G|--------------------------|--------------------------|--------------------------|--------------------------|
D|--------------------------|----------/5--5-----------|--------------------------|--------------------------|
A|--------3--3--3--3--3--3--|--3--3--3--------3--5--6--|--7--7--7--7--7--7--7--7--|--7--8--7--7-----7--------|
E|--------------------------|--------------------------|--------------------------|--------------------7--0--|

G|--------------------------|--------------------------|--------------------------|--------------------------|
D|--------------------------|--------------------------|--------------------------|--------------------------|
A|--------------------------|--------------------------|--------------------------|-----2-----3-----2-----2--|
E|--1--1--0--1--1--1--0--1--|--1--1--0--1--1--1--0--1--|--4--4--4--4--4--4--4--3--|--3-----3-----------3-----|

G|--------------------------|--------------------------|--------------------------|--------------------------|
D|--------------------------|----------/5--5-----------|--------------------------|--------------------------|
A|--------3--3--3--3--3--3--|--3--3--3--------3--5--6--|--7--7--7--7--7--7--7--7--|--7--8--7--7-----7--------|
E|--------------------------|--------------------------|--------------------------|--------------------7--0--|

G|--------------------------|--------------------------|--------------------------|--------------------------|
D|--------------------------|--------------------------|--------------------------|--------------------------|
A|--------------------------|--------------------------|--------------------------|--------2-----3-----2-----|
E|--1--1--0--1--1--1--0--1--|--1--1--0--1--1--1--0--1--|--4--4--4--4--4--4--4--3--|--3--3-----3-----3-----3--|


Pre-chorus 1
G|--------------------------|--------------------------|--------------------------|--------------------------|
D|--------------------------|--/7-----/7---------------|--------------------------|--------------------------|
A|--7---7---7-------7-------|-----------------7--7-----|--5---5---5-------5-------|--------2-----3--2-----2/-|
E|--------------7-------5---|-----------------------5--|--------------5-------3---|-----3-----3--------3-----|

G|--------------------------|--------------------------|--------------------------|--------------------------|
D|--------------------------|--/7-----/5------5--------|--------------------------|--------------------------|
A|--7---7---7-------7-------|--------------------7-----|--5-----3--5--5-----3--5--|--5-----3--5--5-----3-----|
E|--------------7-------5---|-----------------------5--|-----5-----------5--------|-----5-----------5-----5--|

G|--------------------------|--------------------------|--------------------------|--------------------------|
D|--------------------------|--------------------------|--------------------------|--------------------------|
A|--------------------------|--------------------------|--------------------------|--------------------------|
E|--6--------6--6--6--6--5--|--3--------3--3--3--3--3--|--3--/15------------------|--------------------------|


Chorus 1
G|--------------------------|-------/7--5-----5--4-----|--------------------------|-------/7--5-----5--4-----|
D|--------------------------|-----5-----------------5-|--------------------------|-----5-----------------5-|
A|--3--3--3--3--3--3--3--3--|--3-----------------------|--2--2--2--2--2--2--2--2--|--2-----------------------|
E|--------------------------|--------------------------|--------------------------|--------------------------|

G|--------------------------|--------------------------|--------------------------|--------------------------|
D|--------------------------|--------------------------|--------------------------|--------------------------|
A|--1--1--1--1--1--3--1--0--|--0--0--0--0--3--0--3--0--|--5--5--5--5--5--5--5--5--|--5--5--5--5--5/17-------|
E|--------------------------|--------------------------|--------------------------|--------------------------|

G|--------------------------|--------------------------|--------------------------|--------------------------|
D|-----/7---7-------3---5/--|--------3--3--5--3-----0--|--2--/9-------7--7--5--7--|--7--5--5--3--3--2--3--2--|
A|--5-----------5-----------|-----5--------------2-----|--------------------------|--------------------------|
E|--------------------------|--------------------------|--------------------------|--------------------------|

G|--------------------------|--------------------------|--------------------------|--------------------------|
D|-----/7---7-------3---5---|--5--3--3--2--2--3--3--5--|--------------------------|--------------------9-----|
A|--5-----------5-----------|--------------------------|--3--3--3--3--3--3--3--3--|--3--3--3--3--3-10----10--|
E|--------------------------|--------------------------|--------------------------|--------------------------|

G|--------------------------|
D|-10-----------------------|
A|--------------------------|
E|--------------------------|


Verse 2
G|----12-10--9--------------|--------------------------|--------------------------|--------------------------|
D|-------------12-10--9-----|--------------------------|--------------------------|--------------------------|
A|----------------------10--|--3-----2--3--------------|--3-----2--3-----3--5--6--|--7--------7--------------|
E|--------------------------|-----3-----------------3--|-----3--------------------|-----X--7--------------7--|

G|--------------------------|--------------------------|--------------------------|--------------------------|
D|--------------------------|--------------------------|--------------------------|--------------------------|
A|--7--------7--------------|--------------------------|--------------------------|--------------------------|
E|-----X--7--------------0--|--1--0--1--1-----------0--|--1--0--1--1-----------3--|--4--0--3--4-----------1--|

G|--------------------------|--------------------------|--------------------------|--------------------------|
D|--------------------------|--------------------------|--------------------------|--------------------------|
A|-----------2--2-----2-----|--3-----2--3--------------|--3-----2--3-----3--5--6--|--7--------7--------------|
E|--3--X--3--------3-----3--|-----3-----------------3--|-----3--------------------|-----X--7--------------7--|

G|--------------------------|--------------------------|--------------------------|--------------------------|
D|--------------------------|--------------------------|--------------------------|--------------------------|
A|--7--------7--------------|--------------------------|--------------------------|--------------------------|
E|-----X--7--------------0--|--1--0--1--1-----------0--|--1--0--1--1-----------3--|--4--0--3--4-----------1--|

G|--------------------------|
D|--------------------------|
A|-----------2--2-----2-----|
E|--3--X--3--------3-----3--|


Pre-chorus 2
G|--------------------------|--------------------------|--------------------------|--------------------------|
D|--------------------------|--------------------------|--------------------------|--------------------------|
A|--7---7---7-------7-------|--------------------7--5--|--5---5---5-------5-------|--------------------5--6--|
E|--------------7-------5---|--5-----0--5--0--5--------|--------------5-------3---|--3--------0--3--0--------|

G|--------------------------|--------------------------|-------------------/9--7--|--------------------------|
D|--------------------------|--------------------------|-----------------5--------|--7--9h10p9h10p9----9-----|
A|--7---7---7-------7-------|--------------------------|--5--5--5--5--5-----------|-----------------10---10--|
E|--------------7-------5---|--5-----0--5--0--5--0-----|--------------------------|--------------------------|

G|--------------------------|--------------------------|--------------------------|--------------------------|
D|--------------------------|--------------------------|--------------------------|--------------------------|
A|--------------------------|--------------------------|--------------------------|--------------------------|
E|--6--------6--6--6--6--5--|--3--------3--3--3--3--3--|--3--/15-----------------|--------------------------|

Chorus 2
G|--------------------------|-------/7--5-----5--4-----|--------------------------|-------/7--5-----5--4-----|
D|--------------------------|-----5-----------------5-|--------------------------|-----5-----------------5-|
A|--3--3--3--3--3--3--3--3--|--3-----------------------|--2--2--2--2--2--2--2--2--|--2-----------------------|
E|--------------------------|--------------------------|--------------------------|--------------------------|

G|--------------------------|--------------------------|--------------------------|--------------------------|
D|--------------------------|--------------------------|--------------------------|--------------------------|
A|--1--1--1--1--1--3--1--0--|--0--0--0--0--3--0--3--0--|--5--5--5--5--5--5--5--5--|--5--5--5--5--5/17-------|
E|--------------------------|--------------------------|--------------------------|--------------------------|

G|--------------------------|--------------------------|--------------------------|--------------------------|
D|-----/7---7-------3---5/--|--------3--3--5--3-----0--|--2--/9-------7--7--5--7--|--7--5--5--3--3--2--3--2--|
A|--5-----------5-----------|-----5--------------2-----|--------------------------|--------------------------|
E|--------------------------|--------------------------|--------------------------|--------------------------|

G|--------------------------|--------------------------|--------------------------|--------------------------|
D|-----/7---7-------3---5---|--5--3--3--2--2--3--3--5--|--------2-----3--2----/10-|---10-/12-10--9--5--------|
A|--5-----------5-----------|--------------------------|--3--------3--------3-----|--------------------7--5--|
E|--------------------------|--------------------------|--------------------------|--------------------------|

G|--------------------------|--------------------------|--------------------------|--------------------------|
D|--------------------------|--------------------------|--------------------------|--------------------------|
A|--3-----3--------3--3-----|--3--3--3--3-----3--3-----|--7-----7-----7--7--7-----|-10-10-10-10-10-10-10-10--|
E|--------------------------|--------------------------|--------------------------|--------------------------|


Interlude
G|--------------------------|--------------------------|--------------------------|--------------------------|
D|--------------------------|--------------------------|--------------------------|--------------------------|
A|--------------------------|--------------------------|--------------------------|--------5--5--6--5-----5--|
E|--4--4--4--4--4--4--4--4--|--4--4--4--4--4--4/11--4--|--6--6--6--6--6--6--6--6--|--6--6--------------6-----|

G|--------8--------------8--|--------8--------------8--|--------------------------|--------------------------|
D|--------------------8-----|--------------------8-----|--------5--------------5--|--------5-----------------|
A|--6-----------6--6--------|--6-----------6--6--------|--------------------5-----|--------------------------|
E|--------------------------|--------------------------|--3-----------3--3--------|--3---------0-3---/------|

G|--------------------------|--------------------------|--------------------------|--------------------------|
D|--------------------------|--------------------------|--------------------------|--------------------------|
A|--------6-----------6-----|--------6--------3--------|--------5-----5--6--5-/8--|--8--6--6--5--5--6--5-----|
E|--4--4-----4--4--4-----4--|--4--4-----4--4-----6--4--|--6--6-----6--------------|-----------------------6--|

G|--------------------------|-----------------9-10-12--|--------------------------|
D|--------------------------|--------9-10-12-----------|--------------------------|
A|--------------------------|-10-12--------------------|-10-----------------------|
E|--3--3--3--3--3--3--3--3--|--------------------------|--------------------------|


Chorus 3/Outro
G|--------------------------|--------------------------|--------------------------|--------------------------|
D|-10-10-10-10-10-10-10-10--|-10-10-10-10-10-10-10-10--|--9--9--9--9--9--9--9--9--|--9--9--9--9--9--9--9--9--|
A|--------------------------|--------------------------|--------------------------|--------------------------|
E|--------------------------|--------------------------|--------------------------|--------------------------|

G|--------------------------|--------------------------|--------------------------|--------------------------|
D|--8--8--8--8--8--8--8--8--|--7--7--7--7--7--7--------|--------------------------|--------------------------|
A|--------------------------|--------------------7--7--|--5--5--5--5--5--5--5--5--|--5--5--5--5--5--5--5--5--|
E|--------------------------|--------------------------|--------------------------|--------------------------|

G|--------------------------|--------------------------|--------------------------|--------------------------|
D|------------------3---5/--|--------3--3--5--3-----0--|--2--/9-------7--7--5--7--|-----5--5--3--3--2--3--2--|
A|--5--/12--12--5-----------|-----5--------------2-----|--------------------------|--------------------------|
E|--------------------------|--------------------------|--------------------------|--------------------------|

G|--------------------------|--------------------------|--------------------------|--------------------------|
D|-----/7---7-------3---5---|--5--3--3--2--2--3--3--5--|--------2-----3--2----/10-|---10-/12-10--9--5--------|
A|--5-----------5-----------|--------------------------|--3--------3--------3-----|--------------------7--5--|
E|--------------------------|--------------------------|--------------------------|--------------------------|

G|--------------------------|-------/7--5-----5--4-----|--------------------------|-------/7--5-----5--4-----|
D|--------------------------|-----5-----------------5-|--------------------------|-----5-----------------5-|
A|--3--3--3--3--3--3--3--3--|--3-----------------------|--2--2--2--2--2--2--2--2--|--2-----------------------|
E|--------------------------|--------------------------|--------------------------|--------------------------|

G|--------------------------|--------------------------|--------------------------|--------------------------|
D|--------------------------|--------------------------|--------------------------|--------------------------|
A|--1--1--1--1--1--3--1--0--|--0--0--0--0--3--0--3--0--|--5--5--5--5--5--5--5--5--|--5--5--5--5--5--5-----5--|
E|--------------------------|--------------------------|--------------------------|--------------------5-----|

G|--------------------------|--------------------------|--------------------------|--------------------------|
D|----------------------5/--|-----5--3--3--2--2--5--2--|--2--/9-------7--7--5--7--|--7--5--5--3--3--2--3--2--|
A|--------5-----5--0--5-----|--------------------------|--------------------------|--------------------------|
E|--------------------------|--------------------------|--------------------------|--------------------------|

G|--------------------------|--------------------------|--------------------------|--------------------------|
D|-----/7---7-------3---5---|--5--3--3--2--2--3--3--5--|--------------------------|---------9-10-------------|
A|--5-----------5-----------|--------------------------|--3-----3-----3--3--3-----|--3--/10------------------|
E|--------------------------|--------------------------|--------------------------|--------------------------|


Mari support para artis dengan streaming lagu mereka melalui gerai digital dan membeli produk mereka berupa kaset/CD dan lainnya.


Advertisements


Chord Lainnya
J Rocks - Berharap Kau Kembali
J Rocks - Cahaya
J Rocks - Ceria
J Rocks - Ceria [bass tab]
J Rocks - Ceria [Tab]
J Rocks - Cobalah Kau Mengerti
J Rocks - Cobalah Kau Mengerti (Guitar Tab)
Lihat kumpulan Chord gitar J Rocks Lengkap disini.
Pencarian

Klik di sini untuk rekomendasikan chord kepada teman

Kata Kunci yang sering digunakan dalam pencarian chord gitar: