Mancanegara Musik 80'an Dangdut Malaysia Reggae Lagu Religi Lagu Anak Radio Artikel

Chord gitar J Rocks - Lepaskan Diriku [Tab]

Sponsors

Chord gitar lagu / Kunci gitar lagu J Rocks - Lepaskan Diriku [Tab] - ( 1010 )
E|-17---16h17p16-14-16----19-----------19/21-19----------19-------23-23/24---|
B|---------------------17-----17-16-17------------17-17------17--------------|
G|---------------------------------------------------------------------------|
D|---------------------------------------------------------------------------|
A|---------------------------------------------------------------------------|
E|---------------------------------------------------------------------------|

E|-17-16---------------------------------|
B|-------17------------------------------|
G|----------16-14-13---------------------|
D|-------------------14------------------|
A|----------------------14-12-11-12-11---|
E|---------------------------------------|

E|-------------------------16-16-16h17-16-|
B|-------------------16-19----------------|
G|----------------17----------------------|
D|----------16-18-------------------------|
A|----15-18-------------------------------|
E|-16-------------------------------------|

E|------------------------19-19-19-19--21-21-21-21-23-23-23-23--24-24-24-24-|
B|-----------19/21---19-----------------------------------------------------|
G|------18------------------------------------------------------------------|
D|-19-----------------------------------------------------------------------|
A|--------------------------------------------------------------------------|
E|--------------------------------------------------------------------------|

E|-----------------------------------------------------------------------|
B|---------------------------------------------------------11--13--------|
G|---------------------10--12--13--------------10--12--13----------------|
D|---------10--11--13--------------10--11--13-----------------------13~~~|
A|-11--13----------------------------------------------------------------|
E|-----------------------------------------------------------------------|

Mari support para artis dengan streaming lagu mereka melalui gerai digital dan membeli produk mereka berupa kaset/CD dan lainnya.


Advertisements


Chord Lainnya
J Rocks - Berharap Kau Kembali
J Rocks - Cahaya
J Rocks - Ceria
J Rocks - Ceria [bass tab]
J Rocks - Ceria [Tab]
J Rocks - Cobalah Kau Mengerti
J Rocks - Cobalah Kau Mengerti (Guitar Tab)
Lihat kumpulan Chord gitar J Rocks Lengkap disini.
Pencarian

Klik di sini untuk rekomendasikan chord kepada teman

Kata Kunci yang sering digunakan dalam pencarian chord gitar: