Mancanegara Musik 80'an Dangdut Malaysia Reggae Lagu Religi Lagu Anak Radio Artikel

Chord gitar J Rocks - Semakin sendiri [Tab]

Sponsors

Chord gitar lagu / Kunci gitar lagu J Rocks - Semakin sendiri [Tab] - ( 711 )
Guitar Solo


e||-------------------------------------------------------------------||
B||-------------------------------------------------------------------||
G||-------------------------------------------------------------------||
D||------------2-4-5-5/7--5-4---1---1-2---9-7-9----7-5-7--7-7/9-5-----||
A||----2-3-3/5--------------------2-------------5---------------------||
E||--3----------------------------------------------------------------||

e||---------------------------------------------------------------------------------||
B||----------------------15-13-12~-15-15/17--12-12-10-10~--10-12-13-15/17-15/17-15~-||
G||-12~---11-12-12/14-12------------------------------------------------------------||
D||---------------------------------------------------------------------------------||
A||---------------------------------------------------------------------------------||
E||---------------------------------------------------------------------------------||

e||-------------------------------------------------------------||
B||-------------------------------------------------------------||
G||----------14-12/14-14/16-12--11-12----4-5-5/7-/16-/16~-14~---||
D||-5-7-7/9-----------------------------------------------------||
A||-------------------------------------------------------------||
E||-------------------------------------------------------------||

e||-------------------------------------------------||
B||-------------------------------------------------||
G||-9-11-12-9-12--16--16p14-14p12-12p11-11p19-9p7---||
D||-------------------------------------------------||
A||-------------------------------------------------||
E||-------------------------------------------------||
                   

e||-------------------------------------12-14/15-14/15-14~-||
B||-15-14/15-13-12h13-10-12/13~---13-15--------------------||
G||--------------------------------------------------------||
D||--------------------------------------------------------||
A||--------------------------------------------------------||
E||--------------------------------------------------------||


e||--3~---||
B||--3~---||
G||--0~---||
D||--0~---||
A||--2~---||
E||--3~---||


kritik & saran : YM/FS : [email protected] [^_^]

Mari support para artis dengan streaming lagu mereka melalui gerai digital dan membeli produk mereka berupa kaset/CD dan lainnya.


Advertisements


Chord Lainnya
J Rocks - Berharap Kau Kembali
J Rocks - Cahaya
J Rocks - Ceria
J Rocks - Ceria [bass tab]
J Rocks - Ceria [Tab]
J Rocks - Cobalah Kau Mengerti
J Rocks - Cobalah Kau Mengerti (Guitar Tab)
Lihat kumpulan Chord gitar J Rocks Lengkap disini.
Pencarian

Klik di sini untuk rekomendasikan chord kepada teman

Kata Kunci yang sering digunakan dalam pencarian chord gitar: