Mancanegara Musik 80'an Dangdut Malaysia Reggae Lagu Religi Lagu Anak Radio Artikel

Chord gitar Kodaline - Better

Advertisements

Chord gitar lagu / Kunci gitar lagu Kodaline - Better - ( 62 )
Song: Better by Kodaline
Tuning Standard

Capo 5

If you have any correction of this, especially the last part of Solo, please tell me, your help is welcome.
I hope to be helpful. :)

Maybe without capo: verse: C C Am G
chorus: F C G F
2° Solo : F C C Em
F G

Intro

G | G | Em7 | Dadd9/F# x2

Verse:

GAm I wasting my tiEm7me? Dadd9/F#
GAm I losing my minEm7d forDadd9/F# better or for worse?
GCause it doesn’tEm7 feelDadd9/F# right
GNo it doesn’t feEm7el riDadd9/F#ght


Chorus:

Cadd9Does it make you feel Gbetter?
Cause it’Dadd9/F#s making me worse
Cadd9Does it make you feel Gbetter?
Cause it’Dadd9/F#s making me hurt
Cadd9Does it make you feel Ggood?
When I’m Dadd9/F#falling apart?
Cadd9Does it make you feel Cmadd9good?

Solo:

G Em7 Dadd9/F#
e||---------------------------------------------||
B||-------5---------------------5---------------||
G||---4/7---7--4/7-4--------4/7---7/4/2---------|| X2
D||---------------------------------------------||
A||---------------------------------------------||
E||---------------------------------------------||

Verse:

GAnd is it all in mEm7y heaDadd9/F#d
GOr was it something Em7I said?
Dadd9/F#Somewhere in between
GCause I’ve got mEm7y regDadd9/F#rets
GAnd I’m feeling liEm7ke death
Dadd9/F#You don’t see what I see


Chorus

Cadd9Does it make you feel Gbetter?
Cause it’Dadd9/F#s making me worse
Cadd9Does it make you feel Gbetter?
Cause it’Dadd9/F#s making me hurt
Cadd9Does it make you feel Ggood?
When I’m Dadd9/F#falling apart?
Cadd9Does it make you feel Cmadd9good?


Solo:

G Em7
e||---------------------------------------------||
B||-------5---------------------5---------------||
G||---4/7---7--4/7-4--------4/7---7/4/2---------|| X2
D||---------------------------------------------||
A||---------------------------------------------||
E||---------------------------------------------||

Cadd9 G G

Cadd9 Dadd9/F#

e||-------------------------------------------------------------------------||
B||-------------------------------------------------------------------------||
G||---2/5---4-5-4-5-4-7-4-5---4-5-4-5-4-5-4-4-2--4-2-4-2-5-2-4--2-4-2-4-2---||
D||-------------------------------------------------------------------------||
A||-------------------------------------------------------------------------||
E||-------------------------------------------------------------------------||

e||----------------------------------------------||
B||----------------------------------------------||
G||--5-4-5-4-7-4-5---4-5-4-5-4-5-4-4-2--4-2-4-2--||
D||----------------------------------------------||
A||----------------------------------------------||
E||----------------------------------------------||

e||-------------------------------------||
B||------------------3-3-5-5-6-6-8-8----||
G||-2-2-4-4-5-5-7-7---------------------|| X2 Or something like that, you can try with Dadd9/F#
D||-------------------------------------||
A||-------------------------------------||
E||-------------------------------------||

Chorus

Cadd9Does it make you feel Gbetter?
Cause it’Dadd9/F#s making me worse
Cadd9Does it make you feel Gbetter?
Cause it’Dadd9/F#s making me hurt
Cadd9Does it make you feel Ggood?
When I’m Dadd9/F#falling apart?
Cadd9Does it make you feel Cmadd9good?


Outro:

G | G | Em7 | Dadd9/F# x2

G Em7 Dadd9/F# Cadd9 Cmadd9
e||-3---0---2---------0------0------------------||
B||-2---2---0---------3------3------------------||
G||-0---2---0---------2------1------------------||
D||-0---0---2---------0------0------------------||
A||-3---3---3---------3------0------------------||
E||-3---3---3---------3------3------------------||




Advertisements


Chord Lainnya
Kodaline - All I Want
Kodaline - Autopilot
Kodaline - Better
Kodaline - Big bad world
Kodaline - Brother
Kodaline - High hopes
Kodaline - Honest
Lihat kumpulan Chord gitar Kodaline Lengkap disini.

Sponsors:

Pencarian

Klik di sini untuk rekomendasikan chord kepada teman

Kata Kunci yang sering digunakan dalam pencarian chord gitar: