Mancanegara Musik 80'an Dangdut Malaysia Lagu Religi Lagu Anak Acara TV Radio Artikel

Chord gitar Superman Is Dead - Punk Hari Ini [Tab]

Advertisements

Chord gitar lagu / Kunci gitar lagu Superman Is Dead - Punk Hari Ini [Tab] - ( 4539 )
Judul       : Punkn Hari Ini
Artist      : Superman Is Dead
Album       : Kuta Rock City

Solo Guitar:

e|------------------------------------------------------------------------------------------------|
B|------------------------------------------------------------------------------------------------|
G|------------------------------------------------------------------------------------------------|
D|--3-3--3-3-3-3-3-3--3-3-3-3-3-3--3-3-3-3--5--3--5--3-3--3-3-3-3-3-3--3-3-3-3--5--3--5-5/7-5--3-3|
A|------------------------------------------------------------------------------------------------|
E|------------------------------------------------------------------------------------------------|

e|------------------------------------------------------------------------------------------------|
B|------------------------------------------------------------------------------------------------|
G|--------------------------5---3---2--------------------------------------------------2-2-2------|
D|--3-3-3~--3-3h5-3-2-3~--3---3---3---5--3--5--3~--3-3-3~--3-3h5-3-2-3~--3-5-5-5-5-5-5-------5-5--|
A|------------------------------------------------------------------------------------------------|
E|------------------------------------------------------------------------------------------------|

e|----------------------------------------------------------------------------------|
B|----------------------------------------------------------------------------------|
G|----------------------------------------------------------------------------------|
D|----3-----3-----3-----3------2-----2---2----7-----7-----7-----7----8-7-5-------5--|
A|--3---3-3---3-3---3-3----3-5---3-5---5----5---5-5---5-5---5-5----5-------8-7-8----|
E|----------------------------------------------------------------------------------|

e|---------------------------------------------------------------------------|
B|---------------------------------------------------------------------------|
G|---------------------------------------------------------------------------|
D|----3-----3-----3-----3------2-----2---2----7-----7-----7-----7--8--10-----|
A|--3---3-3---3-3---3-3----3-5---3-5---5----5---5-5---5-5---5-5----8--10-----|
E|-----------------------------------------------------------------6--8-----|

e|--/5--------------------------------------------------------------------------------|
B|-----8-6-5-6-5-6-8-6-5-6-5----5-6-5-6-8-6--8p6---8p6---8p6---8p6----8b10-8b10-8b10--|
G|---------------------------6~------------------7-----7-----7-----7------------------|
D|------------------------------------------------------------------------------------|
A|------------------------------------------------------------------------------------|
E|------------------------------------------------------------------------------------|

e|-------------------------------------------------------------8---6---5-----------|
B|--6-5-6-8-6-5-6~-5---5-6-5-6-8-6-8-6~--6-6-6~-6-6p8-6-5-6~-6---6---6---8-6-8-6~--|
G|-------------------7-------------------------------------------------------------|
D|---------------------------------------------------------------------------------|
A|---------------------------------------------------------------------------------|
E|---------------------------------------------------------------------------------|

e|------------------------------------5-5-5------|
B|--6-6-6--6-6p8-6-5-6--6-8-8-8-8-8-8-------8-8--|
G|-----------------------------------------------|
D|-----------------------------------------------|
A|-----------------------------------------------|
E|-----------------------------------------------|

Advertisements


Chord Lainnya
Superman Is Dead - Aku Persepsi
Superman Is Dead - Aku Persepsi
Superman Is Dead - All Angels Cry
Superman Is Dead (SID) - Batas Cahaya
Superman Is Dead - Blackmarket Love
Superman Is Dead - Bukan pahlawan
Superman Is Dead - Bukan Pahlawan (tab)
Lihat kumpulan Chord gitar Superman Is Dead Lengkap disini.

Sponsors:

Pencarian
Klik di sini untuk rekomendasikan Chord kepada teman!

Next Chord : Superman Is Dead - Aku Persepsi

Kata Kunci yang sering digunakan dalam pencarian chord gitar: