Mancanegara Musik 80'an Dangdut Malaysia Reggae Lagu Religi Lagu Anak Radio Artikel

Chord gitar Tab Ungu - Disini Untukmu [interlude tab]

Advertisements

Chord gitar lagu / Kunci gitar lagu Tab Ungu - Disini Untukmu [interlude tab] - ( 3426 )
E||--------17~-----------15~----|---------17~-----------15~----|
B||--15-----------15~-----------|--15~-----------15~-----------|
G||-----------------------------|------------------------------|
D||-----------------------------|------------------------------|
A||-----------------------------|------------------------------|
E||-----------------------------|------------------------------|

--------14~------------------|---------------------------------|
---------------15~----10~----|--10h~-12~----10~----8~----7~----|
-----------------------------|---------------------------------|
-----------------------------|---------------------------------|
-----------------------------|---------------------------------|
-----------------------------|---------------------------------|

------------------------10~----|------------------14b~----|
-------7h~-8~----10~-----------|--------------------------|
-------------------------------|--------------------------|
-------------------------------|--------------------------|
-------------------------------|--------------------------|
-------------------------------|--------------------------|

--14b~----14b~----14b~----14b~----|--14b~----14b~----14b~---------|
----------------------------------|-------------------------------|
----------------------------------|-------------------------------|
----------------------------------|-------------------------------|
----------------------------------|-------------------------------|
----------------------------------|-------------------------------|

---------17~-----------15~----|---------17~-----------15~----|
--15~-----------15~-----------|--15~-----------15~-----------|
------------------------------|------------------------------|
------------------------------|------------------------------|
------------------------------|------------------------------|
------------------------------|------------------------------|

--------14~------------------|---------------------------------|
---------------15~----10~----|--10h~-12~----10~----8~----7~----|
-----------------------------|---------------------------------|
-----------------------------|---------------------------------|
-----------------------------|---------------------------------|
-----------------------------|---------------------------------|

------------------------10~----|-----------------------|
--L----7h~-8~----10~-----------|-----------------------|
-------------------------------|-----------------------|
-------------------------------|-----------------------|
-------------------------------|-----------------------|
-------------------------------|-----------------------|

--15~----15~--14~----14~---------|------------------------14~-----------||
--------------------------17~----|--17~--15~----14~--15~---------12~----||
---------------------------------|--------------------------------------||
---------------------------------|--------------------------------------||
---------------------------------|--------------------------------------||
---------------------------------|--------------------------------------||

Mari support para artis dengan streaming lagu mereka melalui gerai digital dan membeli produk mereka berupa kaset/CD dan lainnya.


Advertisements


Chord Lainnya
Tab Ungu - Disini Untukmu [interlude tab]
Tab Ungu - Disini Untukmu [interlude tab]
Tab Ungu - Disini Untukmu [interlude tab]
Lihat kumpulan Chord gitar Tab Ungu Lengkap disini.

Sponsors:

Pencarian

Next Chord : Tab Ungu - Disini Untukmu [interlude tab]

Kata Kunci yang sering digunakan dalam pencarian chord gitar: