Mancanegara Musik 80'an Dangdut Malaysia Lagu Religi Lagu Anak Acara TV Radio Artikel

Chord gitar Bryan Adams - Everything i do i do it for you

Advertisements

Chord gitar lagu / Kunci gitar lagu Bryan Adams - Everything i do i do it for you - ( 72 )
Title: Everything I Do (I Do It For You) (acoustic)
Artist: Bryan Adams
Albums: Waking Up the Neighbours (1991), So Far So Good (1993), MTV Unplugged (1997),
The Best of Me (1999)
Tuning: Standard Tuning, Capo on First Fret
Tabber: coolguy824 ([email protected])

Chords to Know: (unless otherwise noted, all chords are to be
played at the 1st fret)
C [X32010]
G [320003]
F [133211]
Dm [000231]
Bb [113331]
Eb [113331] at 6th fret
Fm [133111]
This song can be played many ways, and with many different arrangements.
The album version is played with two guitars (rhythm and lead), one bass,
drums, and piano. However, I find that
the arrangement of two guitars (one acoustic for rhythm and one electric
for picking), with
percussion (you can't really call it drums, since the percussion in this
version usually only consists of the drummer, Mickey Curry, keeping the
beat with a marraca). The version being tabbed here (the latter version)
is very easy to play, and sounds great. It is in a different key, so it
may sound a little bit different than normal. I hope you enjoy it.
VERSE I:
CLook into my eyes, Gyou will see

FWhat you mean to Gme


Search your Cheart, search your Gsoul

And when you Ffind me there, you'll Csearch no Gmore

CHORUS I:
Don't Dmtell me it's not worth Ctrying Dmfor C

You can't Dmtell me it's not worth Cdying Dmfor


You know it's Ctrue, everything GI do, I do itC for you


VERSE II:
CLook into your heart, Gyou will find

There's Fnothing there to Ghide


Just take me as I Cam, take my Glife

I would Fgive it all, I would CsacriGfice

CHORUS II:
Don't Dmtell me it's not worth Cfighting Dmfor C

I can't Dmhelp it, there's nothing CI want Dmmore


You know it's Ctrue, everything GI do, I do it Cfor you


BRIDGE:
BbThere's no love like Ebyour love

And no Bbother could give Fmore love


There's Cnowhere unless Gyou're there

All the Dtime, all the Gway, Cyeah

INTERLUDE and SOLO
Rhythm Guitar: F C F C

Lead Guitar: This solo is the one that works best with this arrangement, and appears
on the Live at the Budokon DVD.

1 + 2 + 3 + 4 + 1 + 2 + 3 + 4 + 1 + 2 + 3 + 4 + 1 + 2 + 3 + 4 +
E|-------------------|--------------------|-------------------------------|-------------------|
B|--------3----5-----|--------------------|-------------------3----5------|-----------8-------|
G|-----------------2-|5-------------------|----------------------------0h2|5-------5----------|
D|-------------------|--------------------|-------------------------------|-------------------|
A|-------------------|--------------------|-------------------------------|-------------------|
E|-------------------|--------------------|-------------------------------|-------------------|

E|-------------------|-----------3h5-----6|5h3h5-3h1h1---1----------------|-------------------|
B|--------3----5-----|--------------------|-------------------3----5------|--------8-8--------|
G|-----------------2-|5-------------------|----------------------------0h2|5------5---5-------|
D|-------------------|--------------------|-------------------------------|-------------------|
A|-------------------|--------------------|-------------------------------|-------------------|
E|-------------------|--------------------|-------------------------------|-------------------|

CHORUS III:
Oh, you can't Dmtell me it's not worth trying Gfor

I can't Dmhelp it, there's nothing I want Gmore


Yeah, I would Cfight for you, I'd Glie for you

Walk the Fwire for you, yeah, I'd Fmdie for you


You know it's Ctrue, everything GI do, FohDmh, I do it Cfor you

ALTERNATE SOLO:
There are alternate ways of playing the solo in this song, as demonstrated during
Bryan's
concerts and video/DVD releases. I will list one of them here.
ALTERNATE #1: This is the solo that appears on the album version and most major
releases of the song. If you are playing the song in the same key that it appears
in on the album, simply move each note up two frets.

1 2 3 4 1 + 2 + 3 + 4 + 1 + 2 + 3 + 4 + 1 + 2 + 3 + 4 +
E|----------|--------------------------|-----------------------|-------------------------------|
B|--3h5-----|---3h5-3p1---1-----1/3----|----------------1---1h3|1----------------5h8--8-----1-1|
G|----------|-----------2--------------|---------------2-------|-------------------------------|
D|----------|--------------------------|-----------------------|-------------------------------|
A|----------|--------------------------|-----------------------|-------------------------------|
E|----------|--------------------------|-----------------------|-------------------------------|

E|----------|--------------------------|-----------------------|-------------------------------|
B|--8/10----|--13p10-10----------------|--10p8--10-3h5---------|-5p3-5p3-5p3-----1-------------|
G|----------|--------------------------|-----------------------|-------------------------------|
D|----------|--------------------------|-----------------------|-------------------------------|
A|----------|--------------------------|-----------------------|-------------------------------|
E|----------|--------------------------|-----------------------|-------------------------------|

| / slide up
| \ slide down
| h hammer-on
| p pull-off
| ~ vibrato
| + harmonic
| x Mute note
===============================================================================




Pencarian

Klik disini untuk share lewat aplikasi WhatsApp

Klik disini untuk mencari chord gitar via aplikasi Telegram

Advertisements


Chord Lainnya
Bryan Adams - Everything i do i do it for you
Bryan Adams - Heaven
Bryan Adams - Heaven acoustic
Lihat kumpulan Chord gitar Bryan Adams Lengkap disini.
Klik di sini untuk rekomendasikan Chord kepada teman!

Sponsors:


Klik di sini untuk rekomendasikan chord kepada teman

Kata Kunci yang sering digunakan dalam pencarian chord gitar: